Escape The Fate - Make Up tab

----------------------------------------------------------------------------
			     Makeup - Escape The Fate
----------------------------------------------------------------------------

Tuning: CGCFAD
 -------------
| /   slide up |
| ~   vibrato  |
| *   Mute note|
 --------------

  Intro: I'm not sure how many times you you have to do the octaves but you
         hear it when you change.
e|-------------------------------------------------------------------------|
B|-------------------------------------------------------------------------|
G|-------------------------------------------------------------------------|
D|---9-----5-----4/5---0-----7--9-11---------------------------------------|
A|---9-4X--5-4X--4/5---0-3X--x--x--x---------------------------------------|
E|---9-----5-----4/5---0-----5--7--9---------------------------------------|

e|-------------------------------------------------------------------------|
B|-------------------------------------------------------------------------|
G|-------------------------------------------------------------------------|
D|---9-----5-----4/5---0-----7-11--9--7------------------------------------|
A|---9-4X--5-4X--4/5---0-3X--x--x--x--x------------------------------------|
E|---9-----5-----4/5---0-----5--9--7--5------------------------------------|

e|-------------------------------------------------------------------------|
B|-------------------------------------------------------------------------|
G|-------------------------------------------------------------------------|
D|---9-----5-----4/5---0-----7--9-11---------------------------------------|
A|---9-4X--5-4X--4/5---0-3X--x--x--x---------------------------------------|
E|---9-----5-----4/5---0-----5--7--9---------------------------------------|

e|-------------------------|
B|-------------------------|
G|-------------------------|
D|---9-----5-----4/5---0~--|
A|---9-4X--5-4X--4/5---0~--|
E|---9-----5-----4/5---0~--|

  Verse: you'll hear when you change frets.
e|-----------------------------------------------------|
B|-----------------------------------------------------|
G|-----------------------------------------------------|
D|---0--4--5--8--7-------------------------------------| 2x
A|---0--4--5--8--7-------------------------------------|
E|---0--4--5--8--7-------------------------------------|
     *  *  *  *  *

  Chorus:
e|-------------------------------------------------------------------------|
B|-------------------------------------------------------------------------|
G|-------------------------------------------------------------------------|
D|---9-----5-----4/5---0-----7--9-11---------------------------------------|
A|---9-4X--5-4X--4/5---0-3X--x--x--x---------------------------------------|
E|---9-----5-----4/5---0-----5--7--9---------------------------------------|

e|-------------------------------------------------------------------------|
B|-------------------------------------------------------------------------|
G|-------------------------------------------------------------------------|
D|---9-----5-----4/5---0-----7-11--9--7------------------------------------|
A|---9-4X--5-4X--4/5---0-3X--x--x--x--x------------------------------------|
E|---9-----5-----4/5---0-----5--9--7--5------------------------------------|

e|---------------------------------------------------------|
B|---------------------------------------------------------|
G|---------------------------------------------------------|
D|---9-----5-----0-----7------7-------9-----5-----0~-------|
A|---9-5x--5-5x--0-5x--7-5x---7-1x----9-5x--5-5x--0~-------|
E|---9-----5-----0-----7------7-------9-----5-----0~-------|
  i use down strokes on this part
  because i think it sounds better.

  Verse 2: Same as last Verse
  Chorus 2: Same as last Chorus

  Bridge:
e|--------------------------|
B|-----------11-------------|
G|--6-7-6-7-----7-6-7-------|
D|--------------------------|2x
A|--------------------------|
E|--------------------------|

e|---------------------------|
B|---------------------------|
G|---------------------------|
D|--5~-5~--0~--7~-8~---------|
A|--5~-5~--0~--7~-8~---------|
E|--5~-5~--0~--7~-8~---------|

e|--------------------------|
B|-----------11-------------|
G|--6-7-6-7-----7-6-7-------|
D|--------------------------|2x
A|--------------------------|
E|--------------------------|

e|---------------------------|
B|---------------------------|
G|---------------------------|
D|--5~-5~--0~-7~-7/8/9~------|
A|--5~-5~--0~-7~-7/8/9~------|
E|--5~-5~--0~-7~-7/8/9~------|
  
   Interlude:? This is the part where Ronnie sings 
              "As make up runs down your cheeks
               You found that you are lost again
               Try to make your way back home
               Found that you're alone"
  
  Outro: just listen carefully
e|-----------------------------------------|
B|-----------------------------------------|
G|--7-6-7/3----6-7/3---6-7/9--11-----------|
D|-----------------------------------------|
A|-----------------------------------------|
E|-----------------------------------------|

e|--------------------------------------|
B|--------------------------------------|
G|--7-6-7/3----6-7/3---6-7/9~-----------|
D|--------------------------------------|
A|--------------------------------------|
E|--------------------------------------|

Also this is off the new version
Also im not 100% sure its rite and my first tab.
Tap to rate this tab
 
# A B C D E F G H I J K L M N O P Q R S T U V W X Y Z