Song name
# A B C D E F G H I J K L M N O P Q R S T U V W X Y Z

Escape The Fate - Bad Blood tab

D|--------------------------------------------------------------|
A|-10----10----17--------18p15p11-18p15p11-18p15p11-------------|
F|-12b---12b---15b----------------------------------------------|
C|--------------------------------------------------------------|
G|--------------------------------------------------------------|
C|--------------------------------------------------------------|

D|---------------------------15b-(17)~----10h13p10--------------------------|
A|18p15p11-18p15p11-18p15p11-----------------------13p10-13b-(15)~--10h13p10|
F|--------------------------------------------------------------------------|
C|--------------------------------------------------------------------------|
G|--------------------------------------------------------------------------|
C|--------------------------------------------------------------------------|

D|-------------------------------------------------------------------------|
A|-------------------13p11p10-13p11p10-13p11p10-13p11p10-13p11p10-13p11p10-|
F|12p10--12ph--10ph--------------------------------------------------------|
C|-------------------------------------------------------------------------|
G|-------------------------------------------------------------------------|
C|-------------------------------------------------------------------------|

D|---------------------17-15-13---------------13-15--17/20b-tr--(22)--------|
A|13p11p10-13p11p10------------17-15-13-15-17-------------------------------|
F|--------------------------------------------------------------------------|
C|--------------------------------------------------------------------------|
G|--------------------------------------------------------------------------|
C|--------------------------------------------------------------------------|
Tap to rate this tab
# A B C D E F G H I J K L M N O P Q R S T U V W X Y Z