Escape The Fate - Issues tab

well then. this is how i play escape the fate's "issues" probably not perfect but damn 
close ;D only my second tab lol so go easy on me :x add me on facebook and talk to me if 
have questions. my email is Danchipolovsky@aol.com

/=slide
p=pulloff
*=pinch harmonic
.=palm mute

INTRO
guitar 1 only

D|------------------------------------------------------------------|
A|------------------------------------------------------------------|
F|------------------------------------------------------------------|x2
C|------------------7-------7---------------------------------------|
G|---5/7p0-8p0-10p0---8-7-8---8-7-5----5/7p0-8p0-10p0-12-10-8-10-8-7|
C|-0---------------------------------0------------------------------|
   .                                 .

intro still

guitar 1
D|------------------------------------------------------------------|
A|------------------------------------------------------------------|
F|------------------------------------------------------------------|x2
C|------------------7-------7---------------------------------------|
G|---5/7p0-8p0-10p0---8-7-8---8-7-5----5/7p0-8p0-10p0-12-10-8-10-8-7|
C|-0---------------------------------0------------------------------|
   .                                 .
guitar 2

D|---------------------------|
A|---------------------------|
F|---------------------------|
C|-00---00---3~00----00-00-7~|x2
G|-00---00---3~00----00-00-7~|
C|-00---00---3~00----00-00-7~|
   ..   ..     ..    .. ..

VERSE
guitar 2 stays the same. just plays it another 2 times. guitar one changes a little. 
this whole riff, guitar one is palm muted. ignore the two dots i was tooo lazy to delete

guitar 1
D|--------------------------------------------------------------------|
A|--------------------------------------------------------------------|
F|--------------------------------------------------------------------|x2
C|--------------------7-------7---------------------------------------|
G|-----7-0-8-0-10-0-----8-7-8---8-7-5------7-0-8-0-10-0-12-10-8-10-8-7|
C|-0-0---------------------------------0-0----------------------------|
 . .
guitar 2

D|---------------------------|
A|---------------------------|
F|---------------------------|
C|-00---00---3~00----00-00-7~|x2
G|-00---00---3~00----00-00-7~|
C|-00---00---3~00----00-00-7~|
   ..   ..     ..    .. ..

guitar 1
all palm muted
D|-------------------------------------------------------------------|
A|-------------------------------------------------------------------|
F|-------------------------------------------------------------------|x2
C|--------------------------------------------------8-7------7-------|
A|-5-5-7-5-8-5-10-5-7-7-8-7-10-7-8-8-10-8-12-8-13-8-----10-8---10-8-7|
C|-------------------------------------------------------------------|

guitar 2
D|--------------------------|---------|
A|--------------------------|---------|
F|--------------------------|---------|
C|-00----22----33---555--555|-00--22--|
A|-00----22----33---555--555|-00--22--|
C|-00----22----33---555--555|-00--22--|
   ..    ..    ..   ...  ...

chorus
guitars 1+2

D|-----------------------------|
A|-----------------------------|
F|-----------------------------|
C|-0----7----5h7--8---7---3----|x4
A|-0x8--7x6--5h7--8x8-7x4-3x4--|
C|-0----7----5h7--8---7---3----|

now the intro riff

guitar 1
D|------------------------------------------------------------------|
A|------------------------------------------------------------------|
F|------------------------------------------------------------------|x2
C|------------------7-------7---------------------------------------|
G|---5/7p0-8p0-10p0---8-7-8---8-7/5----5/7p0-8p0-10p0-12-10-8-10-8-7|
C|-0---------------------------------0------------------------------|
   .                                 .
guitar 2

D|---------------------------|
A|---------------------------|
F|---------------------------|
C|-00---00---3~00----00-00-7~|x2
G|-00---00---3~00----00-00-7~|
C|-00---00---3~00----00-00-7~|
   ..   ..     ..    .. ..

verse AGAIN

guitar 1
D|--------------------------------------------------------------------|
A|--------------------------------------------------------------------|
F|--------------------------------------------------------------------|x2
C|--------------------7-------7---------------------------------------|
G|-----7-0-8-0-10-0-----8-7-8---8-7-5------7-0-8-0-10-0-12-10-8-10-8-7|
C|-0-0---------------------------------0-0----------------------------|

guitar 2

D|---------------------------|
A|---------------------------|
F|---------------------------|
C|-00---00---3~00----00-00-7~|x2
G|-00---00---3~00----00-00-7~|
C|-00---00---3~00----00-00-7~|
   ..   ..     ..    .. ..

guitar 1
all palm muted
D|-------------------------------------------------------------------|
A|-------------------------------------------------------------------|
F|-------------------------------------------------------------------|x2
C|--------------------------------------------------8-7------7-------|
A|-5-5-7-5-8-5-10-5-7-7-8-7-10-7-8-8-10-8-12-8-13-8-----10-8---10-8-7|
C|-------------------------------------------------------------------|

guitar 2
D|---------------------------|----------|
A|---------------------------|----------|
F|---------------------------|----------|
C|-00----22---33---555---555-|-00----22-|
A|-00----22---33---555---555-|-00----22-|
C|-00----22---33---555---555-|-00----22-|
   ..    ..   ..   ...   ...   ..

chorus
guitars 1+2

D|-----------------------------|
A|-----------------------------|
F|-----------------------------|
C|-0----7----5h7--8---7---3----|x4
A|-0x8--7x6--5h7--8x8-7x4-3x4--|
C|-0----7----5h7--8---7---3----|

SOLO TIME :D

guitar 1

D|-------------------------|
A|-------------------------|
F|-------------------------|
C|-0~~~~~-------0~~~~~~~~~-|
A|-0~~~~~-------0~~~~~~~~~-|
C|-0~~~~~-------0~~~~~~~~~-|

use your whammy if you got it here for guitar 1

D|---------------------------|
A|---------------------------|
F|---------------------------|
C|-00---00---3~00----00-00-7~|x2
G|-00---00---3~00----00-00-7~|
C|-00---00---3~00----00-00-7~|
   ..   ..     ..    .. ..

guitar 1

D|-----------------------17--15---------------------------------------|
A|-3~~~~~5~~~~~~6~~~~~~---------18-17-13-15~~~~-T20p15-x8---T22p16-x8-|
F|-5b7~~~7b9~~~~8b10~~~-----------------------------------------------|
C|--------------------------------------------------------------------|
G|--------------------------------------------------------------------|
C|--------------------------------------------------------------------|

  |----------17-18-20-20-20-20b22~~~~~~~~~~--|
  |-17-18-20---------------------------------|
  |------------------------------------------|
  |------------------------------------------|
  |------------------------------------------|
  |------------------------------------------|

guitar 2

all palm muted
D|----------------------------------|
A|----------------------------------|
F|----------------------------------|
C|----------------------------------|
G|----------------------------------|
C|0x8---2x8---3x8---5x8---0x8---2x8-|

repeat the chorus. you should get it :)
Tap to rate this tab
 
# A B C D E F G H I J K L M N O P Q R S T U V W X Y Z