Song name
# A B C D E F G H I J K L M N O P Q R S T U V W X Y Z

Escape The Fate - 10 Miles Wide tab

This Is My First Full Song Tab. My Dad Taught It To Me By Ear & I'm just Tabbing It 
I Don't Have The Strumming For The Chorus, So You're Gonna Have To Figure That & The Timing 
By Yourself. Just Listen To The Song. The Verses Are Really Palm Muted. Tell Me If 
I Made Any Mistakes(:

Pinch Harmonic - ~
Slide - /
Palm Mute - *
Pull Off - p


F---------------------------------------------------------------------------|
A---------------------------------------------------------------------------|
D---------------------------------------------------------------------------|
C-----------------------------2---2-----------------------------------------|
G-5~p0-0000-7~p0-0000---000-----4-------------------------------------------|
C------0000------0000-3-000-2-----------------------------------------------|
       ****      ****   ***

F---------------------------------------------------------------------------|
A---------------------------------------------------------------------------|
D---------------------------------------------------------------------------|
C-----------------------------2---2-----------------------------------------|
G-5~p0-0000-7~p0-0000---000-----4-------------------------------------------|
C------0000------0000-3-000-2-----------------------------------------------|
       ****      ****   ***

F---------------------------------------------------------------------------|
A---------------------------------------------------------------------------|
D---------------------------------------------------------------------------|
C-----------------------------2---2-----------------------------------------|
G-5~p0-0000-7~p0-0000---000-----4-------------------------------------------|
C------0000------0000-3-000-2-----------------------------------------------|
       ****      ****   ***

F---------------------------------------------------------------------------|
A---------------------------------------------------------------------------|
D---------------------------------------------------------------------------|
C-----------------------------2---2-----------------------------------------|
G-5~p0-0000-7~p0-0000---000-----4-------------------------------------------|
C------0000------0000-3-000-2-----------------------------------------------|
       ****      ****   ***

F---------------------------------------------------------------------------|
A---------------------------------------------------------------------------|
D---------------------------------------------------------------------------|
C---------------------------------------------------------------------------|
G---------------------------------------------------------------------------|
C-0000-3-2-0-3-2----0000-3-2-0-3-2----0000-3-2-0-3-2----0000-3-2-0-3-22222--|
  **** * * * * *    **** * * * * *    **** * * * * *    **** * * * * *****

F---------------------------------------------------------------------------|
A---------------------------------------------------------------------------|
D---------------------------------------------------------------------------|
C-0-0-0-0-0---3-3-3-3-3---3-3-3-3-3---5-5-5-5-5-----------------------------|
G-0-0-0-0-0---1-1-1-1-1---3-3-3-3-3---3-3-3-3-3-----------------------------|
C-0-0-0-0-0---------------3-3-3-3-3-----------------------------------------|


F---------------------------------------------------------------------------|
A---------------------------------------------------------------------------|
D---------------------------------------------------------------------------|
C-0-0-0-0-0---3-3-3-3-3---3-3-3-3-3---5-5-5-5-5-----------------------------|
G-0-0-0-0-0---1-1-1-1-1---3-3-3-3-3---3-3-3-3-3-----------------------------|
C-0-0-0-0-0---------------3-3-3-3-3-----------------------------------------|


F---------------------------------------------------------------------------|
A---------------------------------------------------------------------------|
D---------------------------------------------------------------------------|
C-----------------------------2---2-----------------------------------------|
G-5~p0-0000-7~p0-0000---000-----4-------------------------------------------|
C------0000------0000-3-000-2-----------------------------------------------|
       ****      ****   ***

F---------------------------------------------------------------------------|
A---------------------------------------------------------------------------|
D---------------------------------------------------------------------------|
C-----------------------------2---2-----------------------------------------|
G-5~p0-0000-7~p0-0000---000-----4-------------------------------------------|
C------0000------0000-3-000-2-----------------------------------------------|
       ****      ****   ***

F---------------------------------------------------------------------------|
A---------------------------------------------------------------------------|
D---------------------------------------------------------------------------|
C---------------------------------------------------------------------------|
G---------------------------------------------------------------------------|
C-0000-3-2-0-3-2----0000-3-2-0-3-2----0000-3-2-0-3-2----0000-3-2-0-3-22222--|
  **** * * * * *    **** * * * * *    **** * * * * *    **** * * * * *****

F---------------------------------------------------------------------------|
A---------------------------------------------------------------------------|
D---------------------------------------------------------------------------|
C-0-0-0-0-0---3-3-3-3-3---3-3-3-3-3---5-5-5-5-5-----------------------------|
G-0-0-0-0-0---1-1-1-1-1---3-3-3-3-3---3-3-3-3-3-----------------------------|
C-0-0-0-0-0---------------3-3-3-3-3-----------------------------------------|


F---------------------------------------------------------------------------|
A---------------------------------------------------------------------------|
D---------------------------------------------------------------------------|
C-0-0-0-0-0---3-3-3-3-3---3-3-3-3-3---5-5-5-5-5-----------------------------|
G-0-0-0-0-0---1-1-1-1-1---3-3-3-3-3---3-3-3-3-3-----------------------------|
C-0-0-0-0-0---------------3-3-3-3-3-----------------------------------------|


F---------------------------------------------------------------------------|
A---------------------------------------------------------------------------|
D---------------------------------------------------------------------------|
C-0-0-0-0-0---3-3-3-3-3---3-3-3-3-3---5-5-5-5-5-----------------------------|
G-0-0-0-0-0---1-1-1-1-1---3-3-3-3-3---3-3-3-3-3-----------------------------|
C-0-0-0-0-0---------------3-3-3-3-3-----------------------------------------|


F---------------------------------------------------------------------------|
A---------------------------------------------------------------------------|
D---------------------------------------------------------------------------|
C-0-0-0-0-0---3-3-3-3-3---3-3-3-3-3---5-5-5-5-5-----------------------------|
G-0-0-0-0-0---1-1-1-1-1---3-3-3-3-3---3-3-3-3-3-----------------------------|
C-0-0-0-0-0---------------3-3-3-3-3-----------------------------------------|


F---------------------------------------------------------------------------|
A---------------------------------------------------------------------------|
D---------------------------------------------------------------------------|
C----3-5-5/7-5-3-----3-5-5/7-5-3-----3-5-5/7-5-3----------------------------|
G-5---------------4---------------1--------------------7---7-5-4------------|
C----------------------------------------------------7---7------------------|


F---------------------------------------------------------------------------|
A---------------------------------------------------------------------------|
D---------------------------------------------------------------------------|
C----3-5-5/7-5-3-----3-5-5/7-5-3-----3-5-5/7-5-3----------------------------|
G-5---------------4---------------1--------------------7---7-5-4------------|
C----------------------------------------------------7---7------------------|


F---------------------------------------------------------------------------|
A---------------------------------------------------------------------------|
D---------------------------------------------------------------------------|
C----3-5-5/7-5-3-----3-5-5/7-5-3-----3-5-5/7-5-3----------------------------|
G-5---------------4---------------1--------------------7---7-5-4------------|
C----------------------------------------------------7---7------------------|


F---------------------------------------------------------------------------|
A---------------------------------------------------------------------------|
D---------------------------------------------------------------------------|
C-----------------------------2---2-----------------------------------------|
G-5~p0-0000-7~p0-0000---000-----4-------------------------------------------|
C------0000------0000-3-000-2-----------------------------------------------|
       ****      ****   ***

F---------------------------------------------------------------------------|
A---------------------------------------------------------------------------|
D---------------------------------------------------------------------------|
C-----------------------------2---2-----------------------------------------|
G-5~p0-0000-7~p0-0000---000-----4-------------------------------------------|
C------0000------0000-3-000-2-----------------------------------------------|
       ****      ****   ***

F---------------------------------------------------------------------------|
A---------------------------------------------------------------------------|
D---------------------------------------------------------------------------|
C-0-0-0-0-0---3-3-3-3-3---3-3-3-3-3---5-5-5-5-5-----------------------------|
G-0-0-0-0-0---1-1-1-1-1---3-3-3-3-3---3-3-3-3-3-----------------------------|
C-0-0-0-0-0---------------3-3-3-3-3-----------------------------------------|


F---------------------------------------------------------------------------|
A---------------------------------------------------------------------------|
D---------------------------------------------------------------------------|
C-0-0-0-0-0---3-3-3-3-3---3-3-3-3-3---5-5-5-5-5-----------------------------|
G-0-0-0-0-0---1-1-1-1-1---3-3-3-3-3---3-3-3-3-3-----------------------------|
C-0-0-0-0-0---------------3-3-3-3-3-----------------------------------------|


F---------------------------------------------------------------------------|
A---------------------------------------------------------------------------|
D---------------------------------------------------------------------------|
C-0-0-0-0-0---3-3-3-3-3---3-3-3-3-3---5-5-5-5-5-----------------------------|
G-0-0-0-0-0---1-1-1-1-1---3-3-3-3-3---3-3-3-3-3-----------------------------|
C-0-0-0-0-0---------------3-3-3-3-3-----------------------------------------|


F---------------------------------------------------------------------------|
A---------------------------------------------------------------------------|
D---------------------------------------------------------------------------|
C-0-0-0-0-0---3-3-3-3-3---3-3-3-3-3---5-5-5-5-5-----------------------------|
G-0-0-0-0-0---1-1-1-1-1---3-3-3-3-3---3-3-3-3-3-----------------------------|
C-0-0-0-0-0---------------3-3-3-3-3-----------------------------------------|

F---------------------------------------------------------------------------|
A---------------------------------------------------------------------------|
D---------------------------------------------------------------------------|
C-----------------------------2---2-----------------------------------------|
G-5~p0-0000-7~p0-0000---000-----4-------------------------------------------|
C------0000------0000-3-000-2-----------------------------------------------|
       ****      ****   ***

F---------------------------------------------------------------------------|
A---------------------------------------------------------------------------|
D---------------------------------------------------------------------------|
C-----------------------------2---2-----------------------------------------|
G-5~p0-0000-7~p0-0000---000-----4-------------------------------------------|
C------0000------0000-3-000-2-----------------------------------------------|
       ****      ****   ***

F---------------------------------------------------------------------------|
A---------------------------------------------------------------------------|
D---------------------------------------------------------------------------|
C-----------------------------2---2-----------------------------------------|
G-5~p0-0000-7~p0-0000---000-----4-------------------------------------------|
C------0000------0000-3-000-2-----------------------------------------------|
       ****      ****   ***

F---------------------------------------------------------------------------|
A---------------------------------------------------------------------------|
D---------------------------------------------------------------------------|
C---------------------------------------------------------------------------|
G-5~p0-0000-7~p0-0000-------------------------------------------------------|
C------0000------0000-3-2---------------------------------------------------|
       ****      ****
Tap to rate this tab
# A B C D E F G H I J K L M N O P Q R S T U V W X Y Z