Song name
# A B C D E F G H I J K L M N O P Q R S T U V W X Y Z

Escape The Fate - Zombie Dance tab

Zombie Dance Solo Tab
Tabbed by RC.

Solo cover here: http://www.youtube.com/watch?v=UxIKjucobMc&feature=sub

*NOTE, tuning is DROP C. play accordingly in different tunings*

D|--10-----10-----10----------------------------------------------------------------------|--
A|--13b15--13b15--13b15r13------10--------------------------------------------------------|--
F|--------------------------12--------------14--15------14--15--17b19r17--15--14--15--14--|--
C|----------------------------------12--15----------15------------------------------------|--
G|----------------------------------------------------------------------------------------|--
C|----------------------------------------------------------------------------------------|--


D|--------------------17------17--18--17--18--18b20--20r18--17--|--
A|--14------14--15--------15------------------------------------|--
F|------14------------------------------------------------------|--
C|--------------------------------------------------------------|--
G|--------------------------------------------------------------|--
C|--------------------------------------------------------------|--


D|--------------------------------------------|--
A|--15--17--15--15h17p15------15--20--15------|--
F|------------------------15--------------15--|--
C|--------------------------------------------|--
G|--------------------------------------------|--
C|--------------------------------------------|--



D|--15------15--13--12--------17--17---------18--18---------20--20---------21--21---------|--
A|------13--------------13------------20p18----------20p18----------22p20----------22p20--|--
F|----------------------------------------------------------------------------------------|--
C|----------------------------------------------------------------------------------------|--
G|----------------------------------------------------------------------------------------|--
C|----------------------------------------------------------------------------------------|--


D|--20b|--
A|-----|--
F|-----|--
C|-----|--
G|-----|--
C|-----|--
Tap to rate this tab
 
# A B C D E F G H I J K L M N O P Q R S T U V W X Y Z