Song name
# A B C D E F G H I J K L M N O P Q R S T U V W X Y Z

Escape The Fate - Gorgeous Nightmare tab

-------------------------------------------------------------------------------
			                        Escape The Fate  - Gorgeous Nightmare
-------------------------------------------------------------------------------
Tabbed by: Ted Mosby
Email: lame_xtric@yahoo.com

Tuning: Drop D


Intro
     
E|------------------------------------|4x
B|------------------------------------|
G|--9-6---9-6---6----999/11/-12b------|
D|------7-----7------777/-9/----------|
A|------------------------------------|
D|------------------------------------|

E|------------------------------------|4x
B|------------------------------------|
G|--9-6---9-6---6----9999/11/9/8------|
D|------7-----7------7777/-9/7/6------|
A|------------------------------------|
D|------------------------------------|

Tap to rate this tab
# A B C D E F G H I J K L M N O P Q R S T U V W X Y Z