Song name
# A B C D E F G H I J K L M N O P Q R S T U V W X Y Z

Escape The Fate - Issues tab

This is without a doubt the most accurate Issues tab on this site yet.
Please rate and comment!

-----------------

Escape the Fate
“Issues”
Escape the Fate

Drop C (C,G,C,F,A,D)
Intermediate Level

Tempo: Q=190


INTRO Part 1---
(0:00)
Guitar 1:
|------------------|
|------------------|
|------------------|
|-12\\-------------|
|-12\\-------------|
|-12\\-------------|

(0:02)
|-----------------------------------------------------------------|
|-----------------------------------------------------------------|
|-----------------------------------------------------------------|
|-------------5---7-------7-------------------5---7-5-----5-------|
|---5-7-5-8-5---5---8-7-8---8-7-5---5-7-5-8-5---5-----8-----8-7---|
|-0-------------------------------0-------------------------------|

(0:07)					          v-- some weird effect
|-----------------------------------------------------------------|
|-----------------------------------------------------------------|
|-------------------------------------------------------------5~--|
|-------------5---7-------7-------------------5---7-5---5---------|
|---5-7-5-8-5---5---8-7-8---8-7-5---5-7-5-8-5---5-----8---8-7-----|
|-0-------------------------------0-------------------------------|

INTRO Part 2---
(0:11)
Guitar 1:
|-----------------------------------------------------------------|
|-----------------------------------------------------------------|
|-----------------------------------------------------------------|
|-------------5---7-------7-------------------5---7-5-----5-------|
|---5-7-5-8-5---5---8-7-8---8-7-5---5-7-5-8-5---5-----8-----8-7~--|
|-0-------------------------------0-------------------------------|

Guitar 2:
|-----------------------------------------------------------------|
|-----------------------------------------------------------------|
|-----------------------------------------------------------------|
|-----------------------------------------------------------------|
|-0-0-------------0-0-------------0-0-----------------------------|
|-0-0-------------0-0---------2b3-0-0-------------0-2-3---0-3-7~--|
  . .             . .		  . .		  . . .   . . .

(0:17)
Guitar 1:
|-----------------------------------------------------------------|
|-----------------------------------------------------------------|
|-----------------------------------------------------------------|
|-------------5---7-------7-------------------5---7-5---5-5-------|
|---5-7-5-8-5---5---8-7-8---8-7-5---5-7-5-8-5---5-----8-----8-7~--|
|-0-------------------------------0-------------------------------|

Guitar 2:
|-----------------------------------------------------------------|
|-----------------------------------------------------------------|
|-----------------------------------------------------------------|
|-----------------------------------------------------------------|
|-0-0-------------0-0-------------0-0-----------------------------|
|-0-0-------------0-0---------2b3-0-0-------------0-2-3---0-3-7~--|
  . .             . .		  . .		  . . .   . . .

VERSE 1---
(0:22)
Guitar 1:
|-----------------------------------------------------------------|
|-----------------------------------------------------------------|
|-----------------------------------------------------------------|
|-------------5---7-------7-------------------5---7-5-----5-------|
|---5-7-5-8-5---5---8-7-8---8-7-5---5-7-5-8-5---5-----8-----8-7*--|
|-0-------------------------------0-------------------------------|
  . . . . . . . . . . . . . . . . . . . . . . . . . . .   . .

Guitar 2:
|-----------------------------------------------------------------|
|-----------------------------------------------------------------|
|-----------------------------------------------------------------|
|-----------------------------------------------------------------|
|-0-0-------------0-0-------------0-0-----------------------------|
|-0-0-------------0-0---------2b3-0-0-------------0-2-3---0-3-7~--|
  . .             . .		  . .		  . . .   . . .

(0:27)
Guitar 1:
|-----------------------------------------------------------------|
|-----------------------------------------------------------------|
|-----------------------------------------------------------------|
|-------------5---7-------7-------------------5---7-5---5-5-------|
|---5-7-5-8-5---5---8-7-8---8-7-5---5-7-5-8-5---5-----8-----8-7*--|
|-0-------------------------------0-------------------------------|
  . . . . . . . . . . . . . . . . . . . . . . . . . . . . . .

Guitar 2:
|-----------------------------------------------------------------|
|-----------------------------------------------------------------|
|-----------------------------------------------------------------|
|-----------------------------------------------------------------|
|-0-0-------------0-0-------------0-0-----------------------------|
|-0-0-------------0-0---------2b3-0-0-------------0-2-3---0-3-7~--|
  . .             . .		  . .		  . . .   . . .

(0:32)
Guitar 1:
|-------------------------------------------------------------------|
|-------------------------------------------------------------------|
|-------------------------------------------------------------------|
|-------------5----------------7-----------------8---8-7-5---8-7-5~-|
|---5-7-5-8-5---5-7-7-8-7-10-7---8-8-8-10-8-12-8---8----------------|
|-0-----------------------------------------------------------------|
  . . . . . . . . . . . . .  . . . . . .  . .  . . . . . .   . .

Guitar 2:
|-------------------------------------------------------------------|
|-------------------------------------------------------------------|
|-------------------------------------------------------------------|
|-------------------------------------------------------------------|
|-0-0-------------2-2--------------3-3---------------5-5-5---5-5-5--|
|-0-0-------------2-2--------------3-3---------------5-5-5---5-5-5--|
  . .             . .		   . .               . . .   . . .

(0:37)
Guitar 1:
|-------------------------------------------------------------------|
|-------------------------------------------------------------------|
|-------------------------------------------------------------------|
|-------------5----------------7-----------------8---8-7-5-7-8-7-5~-|
|---5-7-5-8-5---5-7-7-8-7-10-7---8-8-8-10-8-12-8---8----------------|
|-0-----------------------------------------------------------------|
  . . . . . . . . . . . . .  . . . . . .  . .  . . .

Guitar 2:
|-------------------------------------------------------------------|
|-------------------------------------------------------------------|
|-------------------------------------------------------------------|
|-------------------------------------------------------------------|
|-0-0-------------2-2--------------3-3------------------------------|
|-0-0-------------2-2--------------3-3------------------------------|
  . .             . .		   . .


CHORUS---
(0:42)
Guitar 1:
|---------------------------------------------------------------------------------------------|
|---------------------------------------------------------------------------------------------|
|-14-14-14-14-14-14-14-14-12-12-12-12-12-12-12-12-10-10-10-10-10-10-10-10-10-10-10-10-9-9-9-9-|
|--x--x--x--x--x--x--x--x--x--x--x--x--x--x--x--x--x--x--x--x--x--x--x--x--x--x--x--x-x-x-x-x-|
|-12-12-12-12-12-12-12-12-10-10-10-10-10-10-10-10--8--8--8--8--8--8--8--8--8--8--8--8-7-7-7-7-|
|---------------------------------------------------------------------------------------------|

Guitar 2:
|---------------------------------------------------------------|
|---------------------------------------------------------------|
|---------------------------------------------------------------|
|-0-0-0-0-0-0-0-0-7-7-7-7-7-5-5-7-7h8-8-8-8-8-8-8---------------|
|-0-0-0-0-0-0-0-0-7-7-7-7-7-5-5-7-7h8-8-8-8-8-8-8-0-0----0-0----|
|-0-0-0-0-0-0-0-0-7-7-7-7-7-5-5-7-7h8-8-8-8-8-8-8-0-0-3*-0-0-2*-|
						  . .    . .

(0:47)
Guitar 1:
|--------------------------------------------------------------------------------------------|
|--------------------------------------------------------------------------------------------|
|-9/14-14-14-14-14-14-14-12-12-12-12-12-12-12-12-10-10-10-10-10-10-10-10-10-10-10-10-9-9-9-9-|
|-x/-x--x--x--x--x--x--x--x--x--x--x--x--x--x--x--x--x--x--x--x--x--x--x--x--x--x--x-x-x-x-x-|
|-7/12-12-12-12-12-12-12-10-10-10-10-10-10-10-10--8--8--8--8--8--8--8--8--8--8--8--8-7-7-7-7-|
|--------------------------------------------------------------------------------------------|


Guitar 2:
|---------------------------------------------------------------|
|---------------------------------------------------------------|
|-7-7-7-7-7-7-7-7-----------------------------------------------|
|-7-7-7-7-7-7-7-7-7-7-7-7-7-5-5-7-7h8-8-8-8-8-8-8---------------|
|-5-5-5-5-5-5-5-5-7-7-7-7-7-5-5-7-7h8-8-8-8-8-8-8-0-0----0-0----|
|-----------------7-7-7-7-7-5-5-7-7h8-8-8-8-8-8-8-0-0-3*-0-0-2*-|
                                                  . .    . .

(0:52)
Guitar 1:
|--------------------------------------------------------------------------------------------|
|--------------------------------------------------------------------------------------------|
|-9/14-14-14-14-14-14-14-12-12-12-12-12-12-12-12-10-10-10-10-10-10-10-10-10-10-10-10-9-9-9-9-|
|-x/-x--x--x--x--x--x--x--x--x--x--x--x--x--x--x--x--x--x--x--x--x--x--x--x--x--x--x-x-x-x-x-|
|-7/12-12-12-12-12-12-12-10-10-10-10-10-10-10-10--8--8--8--8--8--8--8--8--8--8--8--8-7-7-7-7-|
|--------------------------------------------------------------------------------------------|

Guitar 2:
|---------------------------------------------------------------|
|---------------------------------------------------------------|
|---------------------------------------------------------------|
|-0-0-0-0-0-0-0-0-7-7-7-7-7-5-5-7-7h8-8-8-8-8-8-8---------------|
|-0-0-0-0-0-0-0-0-7-7-7-7-7-5-5-7-7h8-8-8-8-8-8-8-0-0----0-0----|
|-0-0-0-0-0-0-0-0-7-7-7-7-7-5-5-7-7h8-8-8-8-8-8-8-0-0-3*-0-0-2*-|
                                                  . .    . .

(0:58)
Guitar 1:
|--------------------------------------------------------------------------------------------|
|--------------------------------------------------------------------------------------------|
|-9/14-14-14-14-14-14-14-12-12-12-12-15-15-15-15-15-14-14-14-14-14-14-14-10-10-10-10-9-9-9-9-|
|-x/-x--x--x--x--x--x--x--x--x--x--x--x--x--x--x--x--x--x--x--x--x--x--x--x--x--x--x-x-x-x-x-|
|-7/12-12-12-12-12-12-12-10-10-10-10-13-13-13-13-13-12-12-12-12-12-12-12--8--8--8--8-7-7-7-7-|
|--------------------------------------------------------------------------------------------|

Guitar 2:
|---------------------------------------------------------------|
|---------------------------------------------------------------|
|-7-7-7-7-7-7-7-7-----------------------------------------------|
|-7-7-7-7-7-7-7-7-7-7-7-7-7-5-5-7-7h8-8-8-8-8-8-8---------------|
|-5-5-5-5-5-5-5-5-7-7-7-7-7-5-5-7-7h8-8-8-8-8-8-8-0-0----0-0----|
|-----------------7-7-7-7-7-5-5-7-7h8-8-8-8-8-8-8-0-0-3*-0-0-2*-|
                                                  . .    . .

POSTCHORUS---
(1:03)
Guitar 1:
|-----------------------------------------------------------------|
|-----------------------------------------------------------------|
|-----------------------------------------------------------------|
|-------------5---7-------7-------------------5---7-5---5-5-------|
|---5-7-5-8-5---5---8-7-8---8-7-5---5-7-5-8-5---5-----8-----8-7*--|
|-0-------------------------------0-------------------------------|
  . . . . . . . . . . . . . . . . . . . . . . . . . . . . . .

Guitar 2:
|-----------------------------------------------------------------|
|-----------------------------------------------------------------|
|-----------------------------------------------------------------|
|-----------------------------------------------------------------|
|-0-0-------------0-0-------------0-0-----------------------------|
|-0-0-------------0-0---------2b3-0-0-------------0-2-3---0-3-7~--|
  . .             . .		  . .	          . . .   . . .

VERSE 2---
[repeat VERSE 1]
(1:08-1:27)

CHORUS---
[repeat CHORUS]
(1:27-1:48)

INTERLUDE---
(1:48)
Both guitars:
|-----------------------------------------------------------------|
|-----------------------------------------------------------------|
|-----------------------------------------------------------------|
|-----------------------------------------------------------------|
|-0-0-------------0-0-------------0-0-----------------------------|
|-0-0-------------0-0---------2b3-0-0-------------0-2-3---0-3-7~--|
  . .             . .		  . .	          . . .   . . .

(1:53)
|-----------------------------------------------------------------|
|-----------------------------------------------------------------|
|-----------------------------------------------------------------|
|-----------------------------------------------------------------|
|-0-0-------------0-0-------------0-0-----------------------------|
|-0-0-------------0-0---------2b3-0-0-------------0-2-3---0-3-7~--|
  . .             . .		    . .		  . . .   . . .

SOLO---
(1:58)
Guitar 1:              ** - - - - - - - - - - - ** HARMONY
|-10~----12~----13~----17~-15~-13-------13~~--|-13~-12~----------------|
|--x~-----x~-----x~---------------17-15-------|---------15-13----15~~--|
|--7~-----9~----10~---------------------------|---------------14-------|
|---------------------------------------------|------------------------|
|---------------------------------------------|------------------------|
|---------------------------------------------|------------------------|

Guitar 2: [w/ tremolo]
|----------------------------------------------------------------------|
|----------------------------------------------------------------------|
|----------------------------------------------------------------------|
|----------------------------------------------------------------------|
|----------------------------------------------------------------------|
|-0~-----2~-----3~-----5~---------------0~-----------------------------|

(2:03)
Guitar 1:
|-12t15p12t15p12t15p12t15-13t17p13t17p13t17p13t17----------15h17h18-20-20-20/22~--|
|-------------------------------------------------15h17h18------------------------|
|---------------------------------------------------------------------------------|
|---------------------------------------------------------------------------------|
|---------------------------------------------------------------------------------|
|---------------------------------------------------------------------------------|

Guitar 2:
|---------------------------------------------------------------------------------|
|---------------------------------------------------------------------------------|
|---------------------------------------------------------------------------------|
|---------------------------------------------------------------------------------|
|---------------------------------------------------------------------------------|
|-2~----------------------3~------------------------------------------------------|

CHORUS---
[repeat CHORUS]
(2:08-2:28)

OUTRO---
(2:28)
Guitar 1:
|---------------------------------------------------------------------------------------------|
|---------------------------------------------------------------------------------------------|
|-14-14-14-14-14-14-14-14-12-12-12-12-12-12-12-12-10-10-10-10-10-10-10-10-10-10-10-10-9-9-9-9-|
|--x--x--x--x--x--x--x--x--x--x--x--x--x--x--x--x--x--x--x--x--x--x--x--x--x--x--x--x-x-x-x-x-|
|-12-12-12-12-12-12-12-12-10-10-10-10-10-10-10-10--8--8--8--8--8--8--8--8--8--8--8--8-7-7-7-7-|
|---------------------------------------------------------------------------------------------|

Guitar 2:
|---------------------------------------------------------------|
|---------------------------------------------------------------|
|---------------------------------------------------------------|
|-0-0-0-0-0-0-0-0-7-7-7-7-7-5-5-7-7h8-8-8-8-8-8-8---------------|
|-0-0-0-0-0-0-0-0-7-7-7-7-7-5-5-7-7h8-8-8-8-8-8-8-0-0----0-0----|
|-0-0-0-0-0-0-0-0-7-7-7-7-7-5-5-7-7h8-8-8-8-8-8-8-0-0-3*-0-0-2*-|
						  . .    . .

(2:33)
Guitar 1:
|---------------------------------------------------------------------------------------|
|---------------------------------------------------------------------------------------|
|-9/14-14-14-14-14-14-14-12-12-12-12-12-12-12-12-10-10-10-10-10-10-10-10-------------5~-|
|-x/-x--x--x--x--x--x--x--x--x--x--x--x--x--x--x--x--x--x--x--x--x--x--x-7-5---5--------|
|-7/12-12-12-12-12-12-12-10-10-10-10-10-10-10-10--8--8--8--8--8--8--8--8-----8---8-7----|
|---------------------------------------------------------------------------------------|


Guitar 2:
|---------------------------------------------------------------|
|---------------------------------------------------------------|
|-7-7-7-7-7-7-7-7-----------------------------------------------|
|-7-7-7-7-7-7-7-7-7-7-7-7-7-5-5-7-7h8-8-8-8-8-8-8---------------|
|-5-5-5-5-5-5-5-5-7-7-7-7-7-5-5-7-7h8-8-8-8-8-8-8---------------|
|-----------------7-7-7-7-7-5-5-7-7h8-8-8-8-8-8-8---------------|

(2:38)
Both guitars:
|-----------|
|-----------|
|-----------|
|-----------|
|-0-0-------|
|-0-0-------|
  . .
Tap to rate this tab
 
# A B C D E F G H I J K L M N O P Q R S T U V W X Y Z