Song name
# A B C D E F G H I J K L M N O P Q R S T U V W X Y Z

Escape The Fate - Gorgeous Nightmare tab

-------------------------------------------------------------------------------
			   Gorgeous Nightmare  - Escape The Fate
-------------------------------------------------------------------------------
Tabbed by: Ted Mosby
Email: lame_xtric@yahoo.com

Tuning: Drop C


Intro
D|--------------------------------------------|4x
A|--------------------------------------------|
F|--------------------------------------------|
C|----3-0-----3-0---------0-3-2-0-2b----------|
G|--------5-------0-5---1---------------------|
C|--------------------------------------------|

D|-------------------------------|4x
A|-------------------------------|
F|-------------------------------|
C|----9s10-00-10-00-7---8877-----|
G|----7s8--00-8--00-5---8877-----|
C|---------00----00-----8877-----|

0:43
D|-----------------|4x
A|-----------------|
F|-----------------|
C|--3-00-3-0000----|
G|--3-00-3-0000----|
C|--3-00-3-0000----|

Chorus
D|--------------------------------------------|
A|--------------------------------------------|
F|-----------------5555-----------------------|
C|--8888-7777-0000-5555-8888-5555-777777-xx---|
G|--8888-7777-0000-3333-8888-5555-777777-xx---|
C|--8888-7777-0000------8888-5555-777777-xx---|

D|---------------------------|2x
A|---------------------------|
F|---------------------------|
C|--3-00-3-0000--000--000----|
G|--3-00-3-0000--000--000----|
C|--3-00-3-0000--000--000----|

1:32
D|-----------------|4x
A|-----------------|
F|-----------------|
C|--3-00-3-0000----|
G|--3-00-3-0000----|
C|--3-00-3-0000----|

Chorus
D|--------------------------------------------|
A|--------------------------------------------|
F|-----------------5555-----------------------|
C|--8888-7777-0000-5555-8888-5555-777777-xx---|
G|--8888-7777-0000-3333-8888-5555-777777-xx---|
C|--8888-7777-0000------8888-5555-777777-xx---|

D|---------------------------|2x
A|---------------------------|
F|---------------------------|
C|--3-00-3-0000--000--000----|
G|--3-00-3-0000--000--000----|
C|--3-00-3-0000--000--000----|

Solo..

2:22
D|--------------------------------------------|
A|--------------------------------------------|
F|--------------------------------------------|
C|----3-0-----3-0---------0-3-2-0-2b----------|
G|--------5-------0-5---1---------------------|
C|--------------------------------------------|


D|---------------------------------------|
A|------------------------18b-18-16-15b--|
F|---------------------15----------------|
C|----3-0-----3-0------------------------|
G|--------5-------0-5--------------------|
C|---------------------------------------|

Chorus
D|--------------------------------------------|
A|--------------------------------------------|
F|-----------------5555-----------------------|
C|--8888-7777-0000-5555-8888-5555-777777-xx---|
G|--8888-7777-0000-3333-8888-5555-777777-xx---|
C|--8888-7777-0000------8888-5555-777777-xx---|

D|--------------------------------------------|
A|--------------------------------------------|
F|-----------------5555-----------------------|
C|--8888-7777-0000-5555-8888-5555-777777-xx---|
G|--8888-7777-0000-3333-8888-5555-777777-xx---|
C|--8888-7777-0000------8888-5555-777777-xx---|

Outro
D|---------------------------|4x 
A|---------------------------|   
F|---------------------------|   
C|--3-00-3-0000--000--000----|  
G|--3-00-3-0000--000--000----|   
C|--3-00-3-0000--000--000----|   
Tap to rate this tab
# A B C D E F G H I J K L M N O P Q R S T U V W X Y Z