Song name
# A B C D E F G H I J K L M N O P Q R S T U V W X Y Z

Escape The Fate - Prepare Your Weapon tab

Tuning: B Standard (B-E-A-D-F#-B)

Believe me, this is the right tuning. It is NOT in Drop C. If you do not believe me, 
out me playing
this video on youtube in this tuning here: http://www.youtube.com/watch?v=8fTKecrEwlk

I have the full song transcribed, in B Standard, and it is by far the most 
accurate on youtube so far.

SECTION 1:

b|----------------------------------------------------------------------------|
f#----------------------------------------------------------------------------|
d|----------------------------------------------------------------------------|
a|----------------------------------------------------------------------------|
e|-7p0--------------8p7-5h7-8p0-------------8p7-5h7-5p3--------------5p3-2h3--|
b|----555-555-5-5-5----5---5---555-555-5-5-5-------5---111-111-1-1-1----1---1-|

------------------------------------|
------------------------------------|
------------------------------------|
------------------------------------|
-3p2-------------3p2-2p0------------|
----000-000-0-0-0---0---0-----------|

SECTION 2:

b|----------------------------------------------------------------------------|
f#----------------------------------------------------------------------------|
d|----------------------------------------------------------------------------|
a|----------------------------------------------------------------------------|
e|-7p0--------------8p7-5h7-8p0-------------8p7-5h7-5p3--------------5p3-2h3--|
b|----555-555-5-5-5----5---5---555-555-5-5-5---5---5---111-111-1-1-1----1---1-|

------------------------------------|
------------------------------------|
------------------------------------|
------------------------------------|
-3p2--------------------------------|
----000-000-000-0-------------------|  x2

(NOTE: ALL OF THE NOTES ON THE A (or E in this tuning) STRING IN THIS SECTION ARE 
SEM-PINCH HARMONIZED)

Hope you learnt it well, and the rest can be easily transcribed by ear, except the 
(fucking nightmare) because it's so overdubbed.
Tap to rate this tab
 
# A B C D E F G H I J K L M N O P Q R S T U V W X Y Z