Escape The Fate - Gorgeous Nightmare tab

drop c:)

Intro
|--------------------------------|
|--------------------------------|
|--------------------------------|
|-3p0---3p0---3------3h5--3~---2-|
|------------------1---------0---|
|-----0-----0---00---------------|x4 s=semiharmonic   .=palm mute
  s   . s   .   .. s s         s
|---------------------------|
|---------------------------|
|---------------------------|
|10-00-10-00-7-00-8888-7777-|
|8--00-8--00-5-00-8888-7777-|
|---00----00---00-8888-7777-|x4
    ..    ..   ..
Verse
|---------------|
|---------------|
|---------------|
|---------------|
|---------------|
|-3-00-3-0000---|x4
  s ss s ssss
Chorus
|-------------------------------------------------------------------------|
|-------------------------------------------------------------------------|
|--3333------2222--------------5555-----3333------------------------------|
|--3333------2222-----0000-----5555-----3333-----5555-----777777-----xx---|
|--1111(x2)--0000(x2)-0000-----3333(x2)-1111(x2)-5555-----777777-----xx---|
|---------------------0000(x2)-------------------5555(x2)-777777(x2)-xx---|


|---------------------------|
|---------------------------|
|---------------------------|
|--3-00-3-0000--000--000----|
|--3-00-3-0000--000--000----|
|--3-00-3-0000--000--000----|
     ..   ....  ...  ...
|---------------------------|
|---------------------------|
|---------------------------|
|--3-00-3-0000--050--050----|
|--3-00-3-0000--050--050----|
|--3-00-3-0000--050--050----|
     ..   ....  ...  ...
Verse
Chorus

(solo)
tab it out! :D
Chorus

after one chorus..
Guitar 1 : Chorus
Guitar 2 :

|-6-6s13-13b~-13-12-13------15b~--13-12-13--6-13b-13-12b-10tr-13tr---|
|----------------------15~-------------------------------------------|
|--------------------------------------------------------------------|
|--------------------------------------------------------------------|
|--------------------------------------------------------------------|
|--------------------------------------------------------------------|


outro
|---------------------------|
|---------------------------|
|---------------------------|
|--3-00-3-0000--000--000----|
|--3-00-3-0000--000--000----|
|--3-00-3-0000--000--000----|
     ..   ....  ...  ...
|---------------------------|
|---------------------------|
|---------------------------|
|--3-00-3-0000--050--050----|
|--3-00-3-0000--050--050----|
|--3-00-3-0000--050--050----|x2
     ..   ....  ...  ...

Tap to rate this tab
 
# A B C D E F G H I J K L M N O P Q R S T U V W X Y Z