Song name
# A B C D E F G H I J K L M N O P Q R S T U V W X Y Z

Escape The Fate - Day Of Wreckoning tab

|-------------------------||-------------------------|
|-------------------------||-----11~-10~-------------|
|-----------------4-------||--7~-7~--7~--------------|
|2-00-2-5-00-2-00--00-2-0-||0-------0----------------|
|-------------------------||-------------------------|
|-------------------------||-------------------------|     
   ..     ..   ..  ..   .   .       .
|-------------------------||-------------------------|
|-------------------------||--1111111-10~------------|
|-----------------4-------||--7-7-7---7~-------------|
|2-00-2-5-00-2-00--00-2-0-||0------------------------|
|-------------------------||-------------------------|
|-------------------------||-------------------------|    x2 
   ..     ..   ..  ..   .   .       
|-------------------------||-------------------------|
|-------------------------||-------------------------|
|-------------------------||-------------------------|
|-------------------------||-------------------------|
|-------------------------||-------------------------|
|0-00-0-3-00-0-00-5-00-0-0||0-5s8-7~-----------------|
 . .. .   .. . ..   .. . .  .
|-------------------------||-------------------------|
|-------------------------||-------------------------|
|-------------------------||-------------------------|
|-------------------------||-------------------------|
|-------------------------||-------------------------|
|0-00-0-3-00-0-00-5-00-0-0||0-5-8-5-7-5--------------|
 . .. .   .. . ..   .. . .  . . . . . .
|-------------------------||-------------------------|
|-------------------------||-------------------------|
|-------------------------||-------------------------|
|-------------------------||-------------------------|
|-------------------------||-------------------------|
|0-00-0-3-00-0-00-5-00-0-0||0-5s8-7~-----------------|
 . .. .   .. . ..   .. . .  .
|-------------------------||-------------------------|
|-------------------------||-------------------------|
|-------------------------||-------------------------|
|-----------------5-55-555||5-3-3---3~---------------|
|5-55-5-7-77-7-77---------||-------------------------|
|-------------------------||-------------------------|
 

my first tab:) :D Drop C tuning " . "=palm mute notes
Tap to rate this tab
# A B C D E F G H I J K L M N O P Q R S T U V W X Y Z