Song name
# A B C D E F G H I J K L M N O P Q R S T U V W X Y Z

Escape The Fate - The Aftermath G3 tab

----------------------------------------------------------------------------
                             The Aftermath (G3)
                              Escape the Fate
----------------------------------------------------------------------------

YESSS! The new album that I have been dying to get has finally come out! Before the 
came out, I wasnít thinking of learning any of the songs on the guitar, until I heard the 
Guillotineís guitar solo. ITíS INSANE. I am dedicated to learning the whole thing, 
(most likely to quit after a while). This is my favorite song on the guitar from 
this album. Enjoy!

Username: dkm817 (same on X box live)
Email: guitardrums@rockfan.com

Guitar 1 Rhythmic (C G C F A D)
Guitar 2 Lead     (C G C F A D)
Guitar 3 Backup   (C G C F A D) (The Lead and Backup guitars might be mixed up, they are 
the same notes)

Intro

Guitar 1
D-----------------------------------------------------------------|
A-----------------------------------------------------------------|
F-----------------------------------------------------------------|
C-0---0---0-------0---0---0-------0---0---0-------0---0---0-------|
G-0---0---0-------0---0---0-------0---0---0-------0---0---0-------|
C-0---0---0-------0---0---0-------0---0---0-------0---0---0-------|

Guitar 2
D-----------------------------------------------------------------|
A-6~~~~~~~~~~~~~~~~~~~~~~-5~~~~~~-6~~~~~~~~~~~~~~-5~~~~~~~~~~~~~~-|
F-----------------------------------------------------------------|
C-----------------------------------------------------------------|
G-----------------------------------------------------------------|
C-----------------------------------------------------------------|

Guitar 3
D-----------------------------------------------------------------|
A-----------------------------------------------------------------|
F-7~~~~~~~~~~~~~~~~~~~~~~-5~~~~~~-7~~~~~~~~~~~~~~-5~~~~~~~~~~~~~~-|
C-----------------------------------------------------------------|
G-----------------------------------------------------------------|
C-----------------------------------------------------------------|

Guitar 1
D-----------------------------------------------------------------|
A-----------------------------------------------------------------|
F-----------------------------------------------------------------|
C-0---0---0-------0---0---0-------0---0---0-------0---0---0-------|
G-0---0---0-------0---0---0-------0---0---0-------0---0---0-------|
C-0---0---0-------0---0---0-------0---0---0-------0---0---0-------|

Guitar 2
D-----------------------------------------------------------------|
A-8~~~~~~~~~~~~~~~~~~~~~~-6~~~~~~-8~~~~~~~~~~~~~~-6~~~~~~~~~~~~~~-|
F-----------------------------------------------------------------|
C-----------------------------------------------------------------|
G-----------------------------------------------------------------|
C-----------------------------------------------------------------|

Guitar 3
D-----------------------------------------------------------------|
A-----------------------------------------------------------------|
F-9~~~~~~~~~~~~~~~~~~~~~~-7~~~~~~-9~~~~~~~~~~~~~~-7~~~~~~~~~~~~~~-|
C-----------------------------------------------------------------|
G-----------------------------------------------------------------|
C-----------------------------------------------------------------|

Guitar 1
D-----------------------------------------------------------------|
A-----------------------------------------------------------------|
F-----------------------------------------------------------------|
C-0---0---0-------0---0---0-------0---0---0-------0---0---0-------|
G-0---0---0-------0---0---0-------0---0---0-------0---0---0-------|
C-0---0---0-------0---0---0-------0---0---0-------0---0---0-------|

Guitar 2
D-----------------------------------------------------------------|
A-10~~~~~~~~~~~~~~~~~~~~~-8~~~~~~-10~~~~~~~~~~~~~-11~~~~~~~~~~~~~-|
F-----------------------------------------------------------------|
C-----------------------------------------------------------------|
G-----------------------------------------------------------------|
C-----------------------------------------------------------------|

Guitar 3
D-----------------------------------------------------------------|
A-----------------------------------------------------------------|
F-10~~~~~~~~~~~~~~~~~~~~~-9~~~~~~-10~~~~~~~~~~~~~-12~~~~~~~~~~~~~-|
C-----------------------------------------------------------------|
G-----------------------------------------------------------------|
C-----------------------------------------------------------------|

Guitar 1
D-----------------------------------------------------------------|
A-----------------------------------------------------------------|
F-----------------------------------------------------------------|
C-0---0---0-------0---0---0-------0---0---0-------0---0---0-------|
G-0---0---0-------0---0---0-------0---0---0-------0---0---0-------|
C-0---0---0-------0---0---0-------0---0---0-------0---0---0-------|

Guitar 2
D-----------------------------------------------------------------|
A-8~~~~~~~~~~~~~~~~~~~~~~-6~~~~~~-8~~~~~~~~~~~~~~-10~~~~~~~~~~~~~-|
F-----------------------------------------------------------------|
C-----------------------------------------------------------------|
G-----------------------------------------------------------------|
C-----------------------------------------------------------------|

Guitar 3
D-----------------------------------------------------------------|
A-----------------------------------------------------------------|
F-9~~~~~~~~~~~~~~~~~~~~~~-7~~~~~~-9~~~~~~~~~~~~~~-10~~~~~~~~~~~~~-|
C-----------------------------------------------------------------|
G-----------------------------------------------------------------|
C-----------------------------------------------------------------|

Guitar 1 x2
D-------------------------------------------------|
A-------------------------------------------------|
F-------------------------------------------------|
C-0-----0-----0-----------0-----0-----0-----------|
G-0-----0-----0-----------0-----0-----0-----------|
C-0-----0-----0-----------0-----0-----0-----------|

Guitar 2 x2
D-------------------------------------------------|
A-7--8--10-10-7--8--10-10-7--8--10-10-7--8--10-10-|
F-------------------------------------------------|
C-------------------------------------------------|
G-------------------------------------------------|
C-------------------------------------------------|
Pm.  .  .  .  .  .  .  .  .  .  .  .  .  .  .  .

Guitar 3 x2
D-------------------------------------------------|
A-------------------------------------------------|
F-7--8--10-10-7--8--10-10-7--8--10-10-7--8--10-10-|
C-------------------------------------------------|
G-------------------------------------------------|
C-------------------------------------------------|
Pm.  .  .  .  .  .  .  .  .  .  .  .  .  .  .  .

Guitar 1 x2
D-------------------------------------------------|
A-------------------------------------------------|
F-------------------------------------------------|
C-0-----0-----0-----------0-----0-----0-----------|
G-0-----0-----0-----------0-----0-----0-----------|
C-0-----0-----0-----------0-----0-----0-----------|

Guitar 2 x2
D-------------------------------------------------|
A-8--9--11-11-8--9--11-11-8--9--11-11-8--9--11-11-|
F-------------------------------------------------|
C-------------------------------------------------|
G-------------------------------------------------|
C-------------------------------------------------|
Pm.  .  .  .  .  .  .  .  .  .  .  .  .  .  .  .

Guitar 3 x2
D-------------------------------------------------|
A-------------------------------------------------|
F-9--10-12-12-9--10-12-12-9--10-12-12-9--10-12-12-|
C-------------------------------------------------|
G-------------------------------------------------|
C-------------------------------------------------|
Pm.  .  .  .  .  .  .  .  .  .  .  .  .  .  .  .

Guitar 1 x2
D-------------------------------------------------|
A-------------------------------------------------|
F-------------------------------------------------|
C-0-----0-----0-----------0-----0-----0-----------|
G-0-----0-----0-----------0-----0-----0-----------|
C-0-----0-----0-----------0-----0-----0-----------|

Guitar 2 x2
D-------------------------------------------------|
A-10-11-13-13-10-11-13-13-10-11-13-13-10-11-13-13-|
F-------------------------------------------------|
C-------------------------------------------------|
G-------------------------------------------------|
C-------------------------------------------------|
Pm.  .  .  .  .  .  .  .  .  .  .  .  .  .  .  .

Guitar 3 x2
D-------------------------------------------------|
A-------------------------------------------------|
F-11-12-14-14-11-12-14-14-11-12-14-14-11-12-14-14-|
C-------------------------------------------------|
G-------------------------------------------------|
C-------------------------------------------------|
Pm.  .  .  .  .  .  .  .  .  .  .  .  .  .  .  .

Guitar 1
D-------------------------------------------------|
A-------------------------------------------------|
F-------------------------------------------------|
C-0-----0-----0-----------0-----0-----0-----------|
G-0-----0-----0-----------0-----0-----0-----------|
C-0-----0-----0-----------0-----0-----0-----------|

Guitar 2
D-------------------------------------------------|
A-12-13-15-15-12-13-15-15-12-13-15-15-12-13-15-15-|
F-------------------------------------------------|
C-------------------------------------------------|
G-------------------------------------------------|
C-------------------------------------------------|
Pm.  .  .  .  .  .  .  .  .  .  .  .  .  .  .  .

Guitar 3
D-------------------------------------------------|
A-------------------------------------------------|
F-12-13-15-15-12-13-15-15-12-13-15-15-12-13-15-15-|
C-------------------------------------------------|
G-------------------------------------------------|
C-------------------------------------------------|
Pm.  .  .  .  .  .  .  .  .  .  .  .  .  .  .  .

Guitar 1
D-------------------------------------------------|
A-------------------------------------------------|
F-------------------------------------------------|
C-0-----0-----0-----------0--0--0--0--10\~~~~~~~~-|
G-0-----0-----0-----------0--0--0--0--10\~~~~~~~~-|
C-0-----0-----0-----------0--0--0--0--10\~~~~~~~~-|

Guitar 2 (Gradually raise bends)
D-------------------------------------------------|
A-15-15-15-15-15-15-15b15b15b15b15b15b15b\~~~~~~~-|
F-------------------------------------------------|
C-------------------------------------------------|
G-------------------------------------------------|
C-------------------------------------------------|
Pm.  .  .  .  .  .

Guitar 3 (Gradually raise bends)
D-------------------------------------------------|
A-------------------------------------------------|
F-15-15-15-15-15-15-15b15b15b15b15b15b15b\~~~~~~~-|
C-------------------------------------------------|
G-------------------------------------------------|
C-------------------------------------------------|
Pm.  .  .  .  .  .

Verse

Guitar 1 & 2
D-----------------------------------------------------------------|
A-----------------------------------------------------------------|
F-----------------------------------------------------------------|
C-0-0-0-0-0~~~~~~~------------------------------------------------|
G-0-0-0-0-0~~~~~~~------------------------------------------------|
C-0-0-0-0-0~~~~~~~------------------------------------------------|
Pm. . . .

Guitar 1 & 2
D-----------------------------------------------------------------|
A-----------------------------------------------------------------|
F-----------------------------------------------------------------|
C-0-0-0-0-0~~~~~~~------------------------------------------------|
G-0-0-0-0-0~~~~~~~------------------------------------------------|
C-0-0-0-0-0~~~~~~~------------------------------------------------|
Pm. . . .

Guitar 1 & 2
D-----------------------------------------------------------------|
A-----------------------------------------------------------------|
F-----------------------------------------------------------------|
C-8-8-8-8-8~~~\~~~------------------------------------------------|
G-8-8-8-8-8~~~\~~~------------------------------------------------|
C-8-8-8-8-8~~~\~~~------------------------------------------------|
Pm. . . .

Guitar 1 & 2
D-----------------------------------------------------------------|
A-----------------------------------------------------------------|
F-----------------------------------------------------------------|
C-8-8-8-8-8~~~\~~~------------------------------------------------|
G-8-8-8-8-8~~~\~~~------------------------------------------------|
C-8-8-8-8-8~~~\~~~------------------------------------------------|
Pm. . . .

Guitar 1
D-----------------------------------------------------------------|
A-----------------------------------------------------------------|
F-----------------------------------------------------------------|
C-0-0-0-0-0~~~~~~~------------------------------------------------|
G-0-0-0-0-0~~~~~~~------------------------------------------------|
C-0-0-0-0-0~~~~~~~------------------------------------------------|
Pm. . . .

Guitar 2
D------------------------------------------------------------------|
A------------------------------------------------------------------|
F---------7-------9-----------7---------9---------7-------10-------|
C-7-7-7-7---7-7-7---7-7-7-7-7---7-7-7-7---7-7-7-7---7-7-7----7-7-7-|
G------------------------------------------------------------------|
C------------------------------------------------------------------|
Pm. . . .   . . .   . . . . .   . . . .   . . . .   . . .    . . .

Guitar 3
D---------10------12----------10--------12--------10------13-------|
A------------------------------------------------------------------|
F------------------------------------------------------------------|
C------------------------------------------------------------------|
G------------------------------------------------------------------|
C------------------------------------------------------------------|

Guitar 1
D-----------------------------------------------------------------|
A-----------------------------------------------------------------|
F-----------------------------------------------------------------|
C-0-0-0-0-0~~~~~~~------------------------------------------------|
G-0-0-0-0-0~~~~~~~------------------------------------------------|
C-0-0-0-0-0~~~~~~~------------------------------------------------|
Pm. . . .

Guitar 2
D------------------------------------------------------------------|
A------------------------------------------------------------------|
F---------7-------9-----------7---------9---------7-------10-------|
C-7-7-7-7---7-7-7---7-7-7-7-7---7-7-7-7---7-7-7-7---7-7-7----7-7-7-|
G------------------------------------------------------------------|
C------------------------------------------------------------------|
Pm. . . .   . . .   . . . . .   . . . .   . . . .   . . .    . . .

Guitar 3
D---------10------12----------10--------12--------10------13-------|
A------------------------------------------------------------------|
F------------------------------------------------------------------|
C------------------------------------------------------------------|
G------------------------------------------------------------------|
C------------------------------------------------------------------|

Guitar 1
D-----------------------------------------------------------------|
A-----------------------------------------------------------------|
F-----------------------------------------------------------------|
C-8-8-8-8-8~~~\~~~------------------------------------------------|
G-8-8-8-8-8~~~\~~~------------------------------------------------|
C-8-8-8-8-8~~~\~~~------------------------------------------------|
Pm. . . .

Guitar 2
D------------------------------------------------------------------|
A------------------------------------------------------------------|
F---------7-------9-----------7---------9---------7-------10-------|
C-8-8-8-8---8-8-8---8-8-8-8-8---8-8-8-8---8-8-8-8---8-8-8----8-8-8-|
G------------------------------------------------------------------|
C------------------------------------------------------------------|
Pm. . . .   . . .   . . . . .   . . . .   . . . .   . . .    . . .

Guitar 3
D---------10------12----------10--------12--------10------13-------|
A------------------------------------------------------------------|
F------------------------------------------------------------------|
C------------------------------------------------------------------|
G------------------------------------------------------------------|
C------------------------------------------------------------------|

Guitar 1
D-----------------------------------------------------------------|
A-----------------------------------------------------------------|
F-----------------------------------------------------------------|
C-8-8-8-8-8~~~\~~~------------------------------------------------|
G-8-8-8-8-8~~~\~~~------------------------------------------------|
C-8-8-8-8-8~~~\~~~------------------------------------------------|
Pm. . . .

Guitar 2
D------------------------------------------------------------------|
A------------------------------------------------------------------|
F---------7-------9-----------7---------9---------7-------10-------|
C-8-8-8-8---8-8-8---8-8-8-8-8---8-8-8-8---8-8-8-8---8-8-8----8-8-8-|
G------------------------------------------------------------------|
C------------------------------------------------------------------|
Pm. . . .   . . .   . . . . .   . . . .   . . . .   . . .    . . .

Guitar 3
D---------10------12----------10--------12--------10------13-------|
A------------------------------------------------------------------|
F------------------------------------------------------------------|
C------------------------------------------------------------------|
G------------------------------------------------------------------|
C------------------------------------------------------------------|

Break Off 1

Guitar 1 & 2
D-----------------------------------------------------------------|
A-----------------------------------------------------------------|
F-----------------------------------------------------------------|
C-0---0---0-------0---0---0-------0---0---0-------0---0---0-------|
G-0---0---0-------0---0---0-------0---0---0-------0---0---0-------|
C-0---0---0-------0---0---0-------0---0---0-------0---0---0-------|

Pre Chorus

Guitar 1
D-----------------------------------------------------------------|
A-----------------------------------------------------------------|
F-----------------------------------------------------------------|
C-8-8-8-8-8-8-8-8-8---8-------------------------------------------|
G-8-8-8-8-8-8-8-8-8---8---------------8---8---8---8---8---8---8---|
C-8-8-8-8-8-8-8-8-8---8-------------------------------------------|
Pm. . . . . . . . .   .

Guitar 2
D-----------------------------------------------------------------|
A-----------------------------------------------------------------|
F-----------------------------------------------------------------|
C-8-8-8-8-8-8-8-8-8---8-------------------------------------------|
G-8-8-8-8-8-8-8-8-8---8---------------8---8---8---8---7---7---7---|
C-8-8-8-8-8-8-8-8-8---8-------------------------------------------|
Pm. . . . . . . . .   .

Guitar 1
D-----------------------------------------------------------------|
A-----------------------------------------------------------------|
F-----------------------------------------------------------------|
C-8-8-8-8-8-8-8-8-8---8-------------------------------------------|
G-8-8-8-8-8-8-8-8-8---8---------------8---8---8---8---8---8---8---|
C-8-8-8-8-8-8-8-8-8---8-------------------------------------------|
Pm. . . . . . . . .   .

Guitar 2
D-----------------------------------------------------------------|
A-----------------------------------------------------------------|
F-----------------------------------------------------------------|
C-8-8-8-8-8-8-8-8-8---8-------------------------------------------|
G-8-8-8-8-8-8-8-8-8---8---------------8---8---8---8---7---7---7---|
C-8-8-8-8-8-8-8-8-8---8-------------------------------------------|
Pm. . . . . . . . .   .

Guitar 1 (Gradually raise bends)
D-----------------------------------------------------------------|
A-----------------------------------------------------------------|
F-----------------------------------------------------------------|
C-0-0-0-0-0-0-0-0-0---0-------------------------------------------|
G-0-0-0-0-0-0-0-0-0---0---------------12--12b-12b-12b-12b-12b-12b-|
C-0-0-0-0-0-0-0-0-0---0-------------------------------------------|
Pm. . . . . . . . .   .

Guitar 1 (Gradually raise bends)
D-----------------------------------------------------------------|
A-------------------------------------11--11b-11b-11b-11b-11b-11b-|
F-------------------------------------14--14b-14b-14b-14b-14b-14b-|
C-0-0-0-0-0-0-0-0-0---0-------------------------------------------|
G-0-0-0-0-0-0-0-0-0---0-------------------------------------------|
C-0-0-0-0-0-0-0-0-0---0-------------------------------------------|
Pm. . . . . . . . .   .

Guitar 1
D-----------------------------------------------------------------|
A-----------------------------------------------------------------|
F-----------------------------------------------------------------|
C-0---0~~~~~~-0---0~~~~~~-0---0~~~~~~-0---0~~~~~~-0---0---0---0---|
G-0---0~~~~~~-0---0~~~~~~-0---0~~~~~~-0---0~~~~~~-0---0---0---0---|
C-0---0~~~~~~-0---0~~~~~~-0---0~~~~~~-0---0~~~~~~-0---0---0---0---|
Pm.   .       .   .       .   .       .   .       .   .   .   .

Guitar 2
D-----------------------------------------------------------------|
A-----------------------------------------------------------------|
F-7---7---7---9---9---9---10--10--10--12--12--12--12--12b-12b-12b-|
C-x---x---x---x---x---x---x---x---x---x---x---x---x---x---x---x---|
G-5---5---5---7---7---7---8---8---8---10--10--10--10--10b-10b-10b-|
C-----------------------------------------------------------------|
Pm.   .   .   .   .   .   .   .   .   .   .   .

Chorus 1

Guitar 1
D-----------------------------------------------------------------|
A-----------------------------------------------------------------|
F-----------------------------------------------------------------|
C-7/--8---8---8---8---8---8---8---8---8---8---8---8---8---8---8---|
G-7/--8---8---8---8---8---8---8---8---8---8---8---8---8---8---8---|
C-7/--8---8---8---8---8---8---8---8---8---8---8---8---8---8---8---|

Guitar 2
D-----------------------------------------------------------------|
A-----------------------------------------------------------------|
F-9/--10--10--10--10--10--10--10--10--10--10--10--10--9---9---9---|
C-x/--x---x---x---x---x---x---x---x---x---x---x---x---x---x---x---|
G-7/--8---8---8---8---8---8---8---8---8---8---8---8---7---7---7---|
C-----------------------------------------------------------------|

Guitar 1
D-----------------------------------------------------------------|
A-----------------------------------------------------------------|
F-----------------------------------------------------------------|
C-8/--10--10--10--10--10--10--10--10--10--10--10--10--10--10--10--|
G-8/--10--10--10--10--10--10--10--10--10--10--10--10--10--10--10--|
C-8/--10--10--10--10--10--10--10--10--10--10--10--10--10--10--10--|

Guitar 2
D-----------------------------------------------------------------|
A-----------------------------------------------------------------|
F-9/--10--10--10--10--10--10--10--10--12--12--12--12--12--12--12--|
C-x/--x---x---x---x---x---x---x---x---x---x---x---x---x---x---x---|
G-7/--8---8---8---8---8---8---8---8---10--10--10--10--10--10--10--|
C-----------------------------------------------------------------|

Guitar 1
D-----------------------------------------------------------------|
A-----------------------------------------------------------------|
F-----------------------------------------------------------------|
C-10/-12--12--12--12--12--12--12--12--12--12--12--12--12--12--12--|
G-10/-12--12--12--12--12--12--12--12--12--12--12--12--12--12--12--|
C-10/-12--12--12--12--12--12--12--12--12--12--12--12--12--12--12--|

Guitar 2
D-----------------------------------------------------------------|
A-----------------------------------------------------------------|
F-12/-14--14--14--14--14--14--14--14--14--14--14--14--14--14--14--|
C-x-/-x---x---x---x---x---x---x---x---x---x---x---x---x---x---x---|
G-10/-12--12--12--12--12--12--12--12--12--12--12--12--12--12--12--|
C-----------------------------------------------------------------|

Guitar 1
D-----------------------------------------------------------------|
A-----------------------------------------------------------------|
F-----------------------------------------------------------------|
C-----------------------------------------------------------------|
G-------------------------------------8---8---8---8---8---8---8---|
C-7---7---7---7---7---7---7---7---7-------------------------------|

Guitar 2
D-----------------------------------------------------------------|
A-----------------------------------------------------------------|
F-14--14--14--14--14--14--14--14--14--10--10--10--10--10--10--10--|
C-x---x---x---x---x---x---x---x---x---x---x---x---x---x---x---x---|
G-12--12--12--12--12--12--12--12--12--8---8---8---8---8---8---8---|
C-----------------------------------------------------------------|

Guitar 1
D-----------------------------------------------------------------|
A-----------------------------------------------------------------|
F-----------------------------------------------------------------|
C-7/--8---8---8---8---8---8---8---8---8---8---8---8---8---8---8---|
G-7/--8---8---8---8---8---8---8---8---8---8---8---8---8---8---8---|
C-7/--8---8---8---8---8---8---8---8---8---8---8---8---8---8---8---|

Guitar 2
D-t17-13p-10-t17-13p10h13t17p13p10--------------------------------|
A-----------------------------------------10------10h-11p-10------|
F---------------------------------7---9-------9-------------------|
C-----------------------------------------------------------------|
G-----------------------------------------------------------------|
C-----------------------------------------------------------------|
Pm                                .   .       .

Guitar 1
D-----------------------------------------------------------------|
A-----------------------------------------------------------------|
F-----------------------------------------------------------------|
C-8/--10--10--10--10--10--10--10--10--10--10--10--10--10--10--10--|
G-8/--10--10--10--10--10--10--10--10--10--10--10--10--10--10--10--|
C-8/--10--10--10--10--10--10--10--10--10--10--10--10--10--10--10--|

Guitar 2
D-------------------------------------------------12--13--12------|
A-t20-15p-13-t20-15p13h15t20p15p13--------10----------------------|
F---------------------------------7---9-------9-------------------|
C-----------------------------------------------------------------|
G-----------------------------------------------------------------|
C-----------------------------------------------------------------|
Pm                                .   .       .

Guitar 1
D-----------------------------------------------------------------|
A-----------------------------------------------------------------|
F-----------------------------------------------------------------|
C-0---0---0---0---0---0---0---0---0---0---0---0---0---0---0---0---|
G-0---0---0---0---0---0---0---0---0---0---0---0---0---0---0---0---|
C-0---0---0---0---0---0---0---0---0---0---0---0---0---0---0---0---|

Guitar 2
D-----------------------------------------------------------------|
A-t17p-15p-10-t17p-15p-10-----------------------------------------|
F-------------------------t22p-14p-10-t22p-14p-10-t19p-14-t21p-14-|
C-----------------------------------------------------------------|
G-----------------------------------------------------------------|
C-----------------------------------------------------------------|

Guitar 1
D-----------------------------------------------------------------|
A-----------------------------------------------------------------|
F-----------------------------------------------------------------|
C-3---3---3---3---3---3---3---3---3---3---3---3---3---3---3---3---|
G-3---3---3---3---3---3---3---3---3---3---3---3---3---3---3---3---|
C-3---3---3---3---3---3---3---3---3---3---3---3---3---3---3---3---|

Guitar 2
D---------------------------------------12------13-13-13-13-12~~~-|
A-t20-17p-13-t20-17p-13-t20-17p-10--13------13--------------------|
F-----------------------------------------------------------------|
C-----------------------------------------------------------------|
G-----------------------------------------------------------------|
C-----------------------------------------------------------------|
Pm                              .   .       .

Verse

Guitar 1 & 2
D-----------------------------------------------------------------|
A-----------------------------------------------------------------|
F-----------------------------------------------------------------|
C-0-0-0-0-0~~~~~~~------------------------------------------------|
G-0-0-0-0-0~~~~~~~------------------------------------------------|
C-0-0-0-0-0~~~~~~~------------------------------------------------|
Pm. . . .

Guitar 1 & 2
D-----------------------------------------------------------------|
A-----------------------------------------------------------------|
F-----------------------------------------------------------------|
C-0-0-0-0-0~~~~~~~------------------------------------------------|
G-0-0-0-0-0~~~~~~~------------------------------------------------|
C-0-0-0-0-0~~~~~~~------------------------------------------------|
Pm. . . .

Guitar 1 & 2
D-----------------------------------------------------------------|
A-----------------------------------------------------------------|
F-----------------------------------------------------------------|
C-8-8-8-8-8~~~\~~~------------------------------------------------|
G-8-8-8-8-8~~~\~~~------------------------------------------------|
C-8-8-8-8-8~~~\~~~------------------------------------------------|
Pm. . . .

Guitar 1 & 2
D-----------------------------------------------------------------|
A-----------------------------------------------------------------|
F-----------------------------------------------------------------|
C-8-8-8-8-8~~~\~~~------------------------------------------------|
G-8-8-8-8-8~~~\~~~------------------------------------------------|
C-8-8-8-8-8~~~\~~~------------------------------------------------|
Pm. . . .

Guitar 1
D-----------------------------------------------------------------|
A-----------------------------------------------------------------|
F-----------------------------------------------------------------|
C-0-0-0-0-0~~~~~~~------------------------------------------------|
G-0-0-0-0-0~~~~~~~------------------------------------------------|
C-0-0-0-0-0~~~~~~~------------------------------------------------|
Pm. . . .

Guitar 2
D------------------------------------------------------------------|
A------------------------------------------------------------------|
F---------7-------9-----------7---------9---------7-------10-------|
C-7-7-7-7---7-7-7---7-7-7-7-7---7-7-7-7---7-7-7-7---7-7-7----7-7-7-|
G------------------------------------------------------------------|
C------------------------------------------------------------------|
Pm. . . .   . . .   . . . . .   . . . .   . . . .   . . .    . . .

Guitar 3
D---------10------12----------10--------12--------10------13-------|
A------------------------------------------------------------------|
F------------------------------------------------------------------|
C------------------------------------------------------------------|
G------------------------------------------------------------------|
C------------------------------------------------------------------|

Guitar 1
D-----------------------------------------------------------------|
A-----------------------------------------------------------------|
F-----------------------------------------------------------------|
C-0-0-0-0-0~~~~~~~------------------------------------------------|
G-0-0-0-0-0~~~~~~~------------------------------------------------|
C-0-0-0-0-0~~~~~~~------------------------------------------------|
Pm. . . .

Guitar 2
D------------------------------------------------------------------|
A------------------------------------------------------------------|
F---------7-------9-----------7---------9---------7-------10-------|
C-7-7-7-7---7-7-7---7-7-7-7-7---7-7-7-7---7-7-7-7---7-7-7----7-7-7-|
G------------------------------------------------------------------|
C------------------------------------------------------------------|
Pm. . . .   . . .   . . . . .   . . . .   . . . .   . . .    . . .

Guitar 3
D---------10------12----------10--------12--------10------13-------|
A------------------------------------------------------------------|
F------------------------------------------------------------------|
C------------------------------------------------------------------|
G------------------------------------------------------------------|
C------------------------------------------------------------------|

Guitar 1
D-----------------------------------------------------------------|
A-----------------------------------------------------------------|
F-----------------------------------------------------------------|
C-8-8-8-8-8~~~\~~~------------------------------------------------|
G-8-8-8-8-8~~~\~~~------------------------------------------------|
C-8-8-8-8-8~~~\~~~------------------------------------------------|
Pm. . . .

Guitar 2
D------------------------------------------------------------------|
A------------------------------------------------------------------|
F---------7-------9-----------7---------9---------7-------10-------|
C-8-8-8-8---8-8-8---8-8-8-8-8---8-8-8-8---8-8-8-8---8-8-8----8-8-8-|
G------------------------------------------------------------------|
C------------------------------------------------------------------|
Pm. . . .   . . .   . . . . .   . . . .   . . . .   . . .    . . .

Guitar 3
D---------10------12----------10--------12--------10------13-------|
A------------------------------------------------------------------|
F------------------------------------------------------------------|
C------------------------------------------------------------------|
G------------------------------------------------------------------|
C------------------------------------------------------------------|

Guitar 1
D-----------------------------------------------------------------|
A-----------------------------------------------------------------|
F-----------------------------------------------------------------|
C-8-8-8-8-8~~~\~~~------------------------------------------------|
G-8-8-8-8-8~~~\~~~------------------------------------------------|
C-8-8-8-8-8~~~\~~~------------------------------------------------|
Pm. . . .

Guitar 2
D------------------------------------------------------------------|
A------------------------------------------------------------------|
F---------7-------9-----------7---------9---------7-------10-------|
C-8-8-8-8---8-8-8---8-8-8-8-8---8-8-8-8---8-8-8-8---8-8-8----8-8-8-|
G------------------------------------------------------------------|
C------------------------------------------------------------------|
Pm. . . .   . . .   . . . . .   . . . .   . . . .   . . .    . . .

Guitar 3
D---------10------12----------10--------12--------10------13-------|
A------------------------------------------------------------------|
F------------------------------------------------------------------|
C------------------------------------------------------------------|
G------------------------------------------------------------------|
C------------------------------------------------------------------|

Break Off 1

Guitar 1 & 2
D-----------------------------------------------------------------|
A-----------------------------------------------------------------|
F-----------------------------------------------------------------|
C-0---0---0-------0---0---0-------0---0---0-------0---0---0-------|
G-0---0---0-------0---0---0-------0---0---0-------0---0---0-------|
C-0---0---0-------0---0---0-------0---0---0-------0---0---0-------|

Pre Chorus

Guitar 1
D-----------------------------------------------------------------|
A-----------------------------------------------------------------|
F-----------------------------------------------------------------|
C-8-8-8-8-8-8-8-8-8---8-------------------------------------------|
G-8-8-8-8-8-8-8-8-8---8---------------8---8---8---8---8---8---8---|
C-8-8-8-8-8-8-8-8-8---8-------------------------------------------|
Pm. . . . . . . . .   .

Guitar 2
D-----------------------------------------------------------------|
A-----------------------------------------------------------------|
F-----------------------------------------------------------------|
C-8-8-8-8-8-8-8-8-8---8-------------------------------------------|
G-8-8-8-8-8-8-8-8-8---8---------------8---8---8---8---7---7---7---|
C-8-8-8-8-8-8-8-8-8---8-------------------------------------------|
Pm. . . . . . . . .   .

Guitar 1
D-----------------------------------------------------------------|
A-----------------------------------------------------------------|
F-----------------------------------------------------------------|
C-8-8-8-8-8-8-8-8-8---8-------------------------------------------|
G-8-8-8-8-8-8-8-8-8---8---------------8---8---8---8---8---8---8---|
C-8-8-8-8-8-8-8-8-8---8-------------------------------------------|
Pm. . . . . . . . .   .

Guitar 2
D-----------------------------------------------------------------|
A-----------------------------------------------------------------|
F-----------------------------------------------------------------|
C-8-8-8-8-8-8-8-8-8---8-------------------------------------------|
G-8-8-8-8-8-8-8-8-8---8---------------8---8---8---8---7---7---7---|
C-8-8-8-8-8-8-8-8-8---8-------------------------------------------|
Pm. . . . . . . . .   .

Guitar 1 (Gradually raise bends)
D-----------------------------------------------------------------|
A-----------------------------------------------------------------|
F-----------------------------------------------------------------|
C-0-0-0-0-0-0-0-0-0---0-------------------------------------------|
G-0-0-0-0-0-0-0-0-0---0---------------12--12b-12b-12b-12b-12b-12b-|
C-0-0-0-0-0-0-0-0-0---0-------------------------------------------|
Pm. . . . . . . . .   .

Guitar 1 (Gradually raise bends)
D-----------------------------------------------------------------|
A-------------------------------------11--11b-11b-11b-11b-11b-11b-|
F-------------------------------------14--14b-14b-14b-14b-14b-14b-|
C-0-0-0-0-0-0-0-0-0---0-------------------------------------------|
G-0-0-0-0-0-0-0-0-0---0-------------------------------------------|
C-0-0-0-0-0-0-0-0-0---0-------------------------------------------|
Pm. . . . . . . . .   .

Guitar 1
D-----------------------------------------------------------------|
A-----------------------------------------------------------------|
F-----------------------------------------------------------------|
C-0---0~~~~~~-0---0~~~~~~-0---0~~~~~~-0---0~~~~~~-0---0---0---0---|
G-0---0~~~~~~-0---0~~~~~~-0---0~~~~~~-0---0~~~~~~-0---0---0---0---|
C-0---0~~~~~~-0---0~~~~~~-0---0~~~~~~-0---0~~~~~~-0---0---0---0---|
Pm.   .       .   .       .   .       .   .       .   .   .   .

Guitar 2
D-----------------------------------------------------------------|
A-----------------------------------------------------------------|
F-7---7---7---9---9---9---10--10--10--12--12--12--12--12b-12b-12b-|
C-x---x---x---x---x---x---x---x---x---x---x---x---x---x---x---x---|
G-5---5---5---7---7---7---8---8---8---10--10--10--10--10b-10b-10b-|
C-----------------------------------------------------------------|
Pm.   .   .   .   .   .   .   .   .   .   .   .

Chorus 1

Guitar 1
D-----------------------------------------------------------------|
A-----------------------------------------------------------------|
F-----------------------------------------------------------------|
C-7/--8---8---8---8---8---8---8---8---8---8---8---8---8---8---8---|
G-7/--8---8---8---8---8---8---8---8---8---8---8---8---8---8---8---|
C-7/--8---8---8---8---8---8---8---8---8---8---8---8---8---8---8---|

Guitar 2
D-----------------------------------------------------------------|
A-----------------------------------------------------------------|
F-9/--10--10--10--10--10--10--10--10--10--10--10--10--9---9---9---|
C-x/--x---x---x---x---x---x---x---x---x---x---x---x---x---x---x---|
G-7/--8---8---8---8---8---8---8---8---8---8---8---8---7---7---7---|
C-----------------------------------------------------------------|

Guitar 1
D-----------------------------------------------------------------|
A-----------------------------------------------------------------|
F-----------------------------------------------------------------|
C-8/--10--10--10--10--10--10--10--10--10--10--10--10--10--10--10--|
G-8/--10--10--10--10--10--10--10--10--10--10--10--10--10--10--10--|
C-8/--10--10--10--10--10--10--10--10--10--10--10--10--10--10--10--|

Guitar 2
D-----------------------------------------------------------------|
A-----------------------------------------------------------------|
F-9/--10--10--10--10--10--10--10--10--12--12--12--12--12--12--12--|
C-x/--x---x---x---x---x---x---x---x---x---x---x---x---x---x---x---|
G-7/--8---8---8---8---8---8---8---8---10--10--10--10--10--10--10--|
C-----------------------------------------------------------------|

Guitar 1
D-----------------------------------------------------------------|
A-----------------------------------------------------------------|
F-----------------------------------------------------------------|
C-10/-12--12--12--12--12--12--12--12--12--12--12--12--12--12--12--|
G-10/-12--12--12--12--12--12--12--12--12--12--12--12--12--12--12--|
C-10/-12--12--12--12--12--12--12--12--12--12--12--12--12--12--12--|

Guitar 2
D-----------------------------------------------------------------|
A-----------------------------------------------------------------|
F-12/-14--14--14--14--14--14--14--14--14--14--14--14--14--14--14--|
C-x-/-x---x---x---x---x---x---x---x---x---x---x---x---x---x---x---|
G-10/-12--12--12--12--12--12--12--12--12--12--12--12--12--12--12--|
C-----------------------------------------------------------------|

Guitar 1
D-----------------------------------------------------------------|
A-----------------------------------------------------------------|
F-----------------------------------------------------------------|
C-----------------------------------------------------------------|
G-------------------------------------8---8---8---8---8---8---8---|
C-7---7---7---7---7---7---7---7---7-------------------------------|

Guitar 2
D-----------------------------------------------------------------|
A-----------------------------------------------------------------|
F-14--14--14--14--14--14--14--14--14--10--10--10--10--10--10--10--|
C-x---x---x---x---x---x---x---x---x---x---x---x---x---x---x---x---|
G-12--12--12--12--12--12--12--12--12--8---8---8---8---8---8---8---|
C-----------------------------------------------------------------|

Guitar 1
D-----------------------------------------------------------------|
A-----------------------------------------------------------------|
F-----------------------------------------------------------------|
C-7/--8---8---8---8---8---8---8---8---8---8---8---8---8---8---8---|
G-7/--8---8---8---8---8---8---8---8---8---8---8---8---8---8---8---|
C-7/--8---8---8---8---8---8---8---8---8---8---8---8---8---8---8---|

Guitar 2
D-t17-13p-10-t17-13p10h13t17p13p10--------------------------------|
A-----------------------------------------10------10h-11p-10------|
F---------------------------------7---9-------9-------------------|
C-----------------------------------------------------------------|
G-----------------------------------------------------------------|
C-----------------------------------------------------------------|
Pm                                .   .       .

Guitar 1
D-----------------------------------------------------------------|
A-----------------------------------------------------------------|
F-----------------------------------------------------------------|
C-8/--10--10--10--10--10--10--10--10--10--10--10--10--10--10--10--|
G-8/--10--10--10--10--10--10--10--10--10--10--10--10--10--10--10--|
C-8/--10--10--10--10--10--10--10--10--10--10--10--10--10--10--10--|

Guitar 2
D-------------------------------------------------12--13--12------|
A-t20-15p-13-t20-15p13h15t20p15p13--------10----------------------|
F---------------------------------7---9-------9-------------------|
C-----------------------------------------------------------------|
G-----------------------------------------------------------------|
C-----------------------------------------------------------------|
Pm                                .   .       .

Guitar 1
D-----------------------------------------------------------------|
A-----------------------------------------------------------------|
F-----------------------------------------------------------------|
C-0---0---0---0---0---0---0---0---0---0---0---0---0---0---0---0---|
G-0---0---0---0---0---0---0---0---0---0---0---0---0---0---0---0---|
C-0---0---0---0---0---0---0---0---0---0---0---0---0---0---0---0---|

Guitar 2
D-----------------------------------------------------------------|
A-t17p-15p-10-t17p-15p-10-----------------------------------------|
F-------------------------t22p-14p-10-t22p-14p-10-t19p-14-t21p-14-|
C-----------------------------------------------------------------|
G-----------------------------------------------------------------|
C-----------------------------------------------------------------|

Guitar 1
D-----------------------------------------------------------------|
A-----------------------------------------------------------------|
F-----------------------------------------------------------------|
C-3---3---3---3---3---3---3---3---3---3---3---3---3---3---3---3---|
G-3---3---3---3---3---3---3---3---3---3---3---3---3---3---3---3---|
C-3---3---3---3---3---3---3---3---3---3---3---3---3---3---3---3---|

Guitar 2
D---------------------------------------12------13-13-13-13-12~~~-|
A-t20-17p-13-t20-17p-13-t20-17p-10--13------13--------------------|
F-----------------------------------------------------------------|
C-----------------------------------------------------------------|
G-----------------------------------------------------------------|
C-----------------------------------------------------------------|
Pm                              .   .       .

Break Off 2

Guitar 1 & 2
D-----------------------------------------------------------------|
A-----------------------------------------------------------------|
F-----------------------------------------------------------------|
C-3---3---3---3---3---3---3---3---3---3---3---3---3---3---3---3---|
G-3---3---3---3---3---3---3---3---3---3---3---3---3---3---3---3---|
C-3---3---3---3---3---3---3---3---3---3---3---3---3---3---3---3---|

Break Off 3

Guitar 1
D-----------------------------------------------------------------|
A-----------------------------------------------------------------|
F-----------------------------------------------------------------|
C-8---8-------8---8-------8---8-------8---8---8---8---7---7---7---|
G-8---8-------8---8-------8---8-------8---8---8---8---7---7---7---|
C-8---8-------8---8-------8---8-------8---8---8---8---7---7---7---|

Guitar 2
D-----------------------------------------------------------------|
A-----------------------------------------------------------------|
F-15--15------15--15------15--15------15--15--15--15--14--14--14--|
C-x---x-------x---x-------x---x-------x---x---x---x---x---x---x---|
G-13--13------13--13------13--13------13--13--13--13--12--12--12--|
C-----------------------------------------------------------------|

Interlude 1

Guitar 1
D-----------------------------------------------------------------|
A-----------------------------------------------------------------|
F-----------------------------------------------------------------|
C-0---0-----------------------------------------------------------|
G-0---0-----------------------------------------------------------|
C-0---0-----------------------------------------------------------|
Pm.   .

Guitar 2
D-----------------------------------------------------------------|
A-----------------------------------------------------------------|
F-----------------------------------------------------------------|
C-7---7---7---7---7---7---7---7---7---7---7---7---7---7---7---7---|
G-5---5---5---5---5---5---5---5---5---5---5---5---5---5---5---5---|
C-----------------------------------------------------------------|

Guitar 3
D-----------------------------------------------------------------|
A-----------------------------------------------------------------|
F-7---7-----------------------------------------------------------|
C-7---7-----------------------------------------------------------|
G-5---5-----------------------------------------------------------|
C-----------------------------------------------------------------|
Pm.   .

Guitar 2 (Gradually raise bends)
D-----------------------------------------------------------------|
A-----------------------------------------------------------------|
F-----------------------------------------------------------------|
C-7---7---7---7---7---7---7---7---7---7---7---7b--7b--7b--7b--7b--|
G-5---5---5---5---5---5---5---5---5---5---5---5b--5b--5b--5b--5b--|
C-----------------------------------------------------------------|

Guitar 1
D-----------------------------------------------------------------|
A-----------------------------------------------------------------|
F-----------------------------------------------------------------|
C-0---0-----------------------------------------------------------|
G-0---0-----------------------------------------------------------|
C-0---0-----------------------------------------------------------|

Guitar 2
D-----------------------------------------------------------------|
A-----------------------------------------------------------------|
F-----------------------------------------------------------------|
C-7---7---7---7---7---7---7---7---7---7---7---7---7---7---7---7---|
G-5---5---5---5---5---5---5---5---5---5---5---5---5---5---5---5---|
C-----------------------------------------------------------------|

Guitar 3
D-----------------------------------------------------------------|
A-----------------------------------------------------------------|
F-7---7-----------------------------------------------------------|
C-7---7-----------------------------------------------------------|
G-5---5-----------------------------------------------------------|
C-----------------------------------------------------------------|

Guitar 2 (Gradually raise bends)
D-----------------------------------------------------------------|
A-----------------------------------------------------------------|
F-----------------------------------------------------------------|
C-7---7---7---7---7---7---7---7---7---7---7---7b--7b--7b--7b--7b--|
G-5---5---5---5---5---5---5---5---5---5---5---5b--5b--5b--5b--5b--|
C-----------------------------------------------------------------|

Guitar 1
D-----------------------------------------------------------------|
A-----------------------------------------------------------------|
F-----------------------------------------------------------------|
C-0---0---------------0---0---------------------------------------|
G-0---0---------------0---0---------------------------------------|
C-0---0---------------0---0---------------------------------------|

Guitar 2
D-----------------------------------------------------------------|
A-----------------------------------------------------------------|
F-----------------------------------------------------------------|
C-7---7---7---7---7---7---7---7---7---7---7---7---7---7---7---7---|
G-5---5---5---5---5---5---5---5---5---5---5---5---5---5---5---5---|
C-----------------------------------------------------------------|

Guitar 3
D-----------------------------------------------------------------|
A-----------------------------------------------------------------|
F-7---7---------------7---7---------------------------------------|
C-7---7---------------7---7---------------------------------------|
G-5---5---------------5---5---------------------------------------|
C-----------------------------------------------------------------|

Guitar 1
D-----------------------------------------------------------------|
A-----------------------------------------------------------------|
F-----------------------------------------------------------------|
C-0---0---------------0---0---------------------------------------|
G-0---0---------------0---0---------------------------------------|
C-0---0---------------0---0---------------------------------------|

Guitar 2 (Gradually raise bends)
D-----------------------------------------------------------------|
A-----------------------------------------------------------------|
F-----------------------------------------------------------------|
C-7---7---7---7---7---7---7---7---7---7---7---7b--7b--7b--7b--7b--|
G-5---5---5---5---5---5---5---5---5---5---5---5b--5b--5b--5b--5b--|
C-----------------------------------------------------------------|

Guitar 3
D-----------------------------------------------------------------|
A-----------------------------------------------------------------|
F-7---7---------------7---7---------------------------------------|
C-7---7---------------7---7---------------------------------------|
G-5---5---------------5---5---------------------------------------|
C-----------------------------------------------------------------|

Guitar 1
D-----------------------------------------------------------------|
A-----------------------------------------------------------------|
F-----------------------------------------------------------------|
C-0---0---------------0---0---------------------------------------|
G-0---0---------------0---0---------------------------------------|
C-0---0---------------0---0---------------------------------------|

Guitar 2
D-----------------------------------------------------------------|
A-----------------------------------------------------------------|
F-----------------------------------------------------------------|
C-7---7---7---7---7---7---7---7---7---7---7---7---7---7---7---7---|
G-5---5---5---5---5---5---5---5---5---5---5---5---5---5---5---5---|
C-----------------------------------------------------------------|

Guitar 3
D-----------------------------------------------------------------|
A-----------------------------------------------------------------|
F-7---7---------------7---7---------------------------------------|
C-7---7---------------7---7---------------------------------------|
G-5---5---------------5---5---------------------------------------|
C-----------------------------------------------------------------|

Guitar 1 (Gradually increase volume)
D-----------------------------------------------------------------|
A-----------------------------------------------------------------|
F-----------------------------------------------------------------|
C-0---0---0---0---0---0---0---0---0---0---0---0-------------------|
G-0---0---0---0---0---0---0---0---0---0---0---0-------------------|
C-0---0---0---0---0---0---0---0---0---0---0---0-------------------|
Pm.   .   .   .   .   .   .   .   .   .   .   .

Guitar 2 (Gradually raise bends)
D-----------------------------------------------------------------|
A-----------------------------------------------------------------|
F-----------------------------------------------------------------|
C-7---7---7---7---7---7---7---7---7---7---7---7b--7b--7b--7b--7b--|
G-5---5---5---5---5---5---5---5---5---5---5---5b--5b--5b--5b--5b--|
C-----------------------------------------------------------------|

Guitar 3 (Gradually increase volume)
D-----------------------------------------------------------------|
A-----------------------------------------------------------------|
F-7---7---7---7---7---7---7---7---7---7---7---7-------------------|
C-7---7---7---7---7---7---7---7---7---7---7---7-------------------|
G-5---5---5---5---5---5---5---5---5---5---5---5-------------------|
C-----------------------------------------------------------------|
Pm.   .   .   .   .   .   .   .   .   .   .   .

Interlude 2

Guitar 2
D-----------------------------------------------------------------|
A-----------------------------------------------------------------|
F-----------------------------------------------------------------|
C-7---7---7---7---7---7---7---7---7---7---7---7---7---7---7---7---|
G-5---5---5---5---5---5---5---5---5---5---5---5---5---5---5---5---|
C-----------------------------------------------------------------|

Guitar 2
D-----------------------------------------------------------------|
A-----------------------------------------------------------------|
F-----------------------------------------------------------------|
C-7---7---7---7---7---7---7---7---7---7---7---7---7---7---7---7---|
G-5---7---7---7---7---7---7---7---7---7---7---7---7---7---7---7---|
C-----------------------------------------------------------------|

Guitar 2
D-----------------------------------------------------------------|
A-----------------------------------------------------------------|
F-----------------------------------------------------------------|
C-7---7---7---7---7---7---7---7---7---7---7---7---7---7---7---7---|
G-7---8---8---8---8---8---8---8---8---8---8---8---8---8---8---8---|
C-----------------------------------------------------------------|

Guitar 2
D-----------------------------------------------------------------|
A-----------------------------------------------------------------|
F-----------------------------------------------------------------|
C-7---7---7---7---7---7---7---7---7---7---7---7---7---7---7---7---|
G-8---7---7---7---7---7---7---7---7---7---7---7---7---7---7---7---|
C-----------------------------------------------------------------|

Guitar 2
D-----------------------------------------------------------------|
A-----------------------------------------------------------------|
F-----------------------------------------------------------------|
C-7---7---7---7---7---7---7---7---7---7---7---7---7---7---7---7---|
G-7---5---5---5---5---5---5---5---5---5---5---5---5---5---5---5---|
C-----------------------------------------------------------------|

Guitar 2
D-----------------------------------------------------------------|
A-----------------------------------------------------------------|
F-----------------------------------------------------------------|
C-7---7---7---7---7---7---7---7---7---7---7---7---7---7---7---7---|
G-5---7---7---7---7---7---7---7---7---7---7---7---7---7---7---7---|
C-----------------------------------------------------------------|

Guitar 2
D-----------------------------------------------------------------|
A-----------------------------------------------------------------|
F-----------------------------------------------------------------|
C-7---7---7---7---7---7---7---7---7---7---7---7---7---7---7---7---|
G-7---8---8---8---8---8---8---8---8---8---8---8---8---8---8---8---|
C-----------------------------------------------------------------|

Guitar 2
D-----------------------------------------------------------------|
A-----------------------------------------------------------------|
F-----------------------------------------------------------------|
C-7---10--10--10--10--10--10--10--10--10--10--10--10--10--10--10--|
G-8---10--10--10--10--10--10--10--10--10--10--10--10--10--10--10--|
C-----------------------------------------------------------------|

Pre Guitar Solo (Drum Fill)

Guitar 2
D-----------------------------------------------------------------|
A-----------------------------------------------------------------|
F-----------------------------------------------------------------|
C-----------------------------------------------------------------|
G-10b~~~~~~~~~~~~~~~~~~~~~~~~~~~~~~~~~~~~~~~~~~~~~~~~~~~~~~~~~~~~~
C-----------------------------------------------------------------

Guitar 2 continued
D---------------------------------|
A---------------------------------|
F---------------------------------|
C---------------------------------|
G-~~~~~~~~~~~~~~~~~~~~~~~~--------|
C---------------------------------|

Guitar Solo (This is the exact replica of my guitar pro tab for the solo)

Guitar 1
D-------------------------------------------------------------------------------------------------|
A-------------------------------------------------------------------------------------------------|
F-------------------------------------------------------------------------------------------------|
C-------------------------------------------------------------------------------------------------|
G-------------------------------------------------------------------------------------------------|
C-0--0--0--0--0--0--0--0--0--0--0--0--0--0--0--0--0--0--0--0--0--0--0--0--0--0--0--0--0--0--0--0--|
Pm.  .  .  .  .  .  .  .  .  .  .  .  .  .  .  .  .  .  .  .  .  .  .  .  .  .  .  .  .  .  .  .

Guitar 2
D-17-------------------------------------------------12-13-12-------13----15~~~~~~~~~~~~~~~~~~~~--|
A----15-------------15-17-18-17-15----------------------------15-14-------------------------------|
F-------14----14--------------------18------15-17-18----------------------------------------------|
C---------------------------------------19--------------------------------------------------------|
G-------------------------------------------------------------------------------------------------|
C-------------------------------------------------------------------------------------------------|

Guitar 3
D-------------------------------------------------------------------------------------------------|
A-------------------------------------------------------------------------------------------------|
F-14-------------------------------------------------9--10-9--------10----12~~~~~~~~~~~~~~~~~~~~--|
C----12-------------12-14-15-14-12----------------------------12-11-------------------------------|
G-------12----12--------------------16------13-15-16----------------------------------------------|
C---------------------------------------19--------------------------------------------------------|

Guitar 1
D-------------------------------------------------------------------------------------------------|
A-------------------------------------------------------------------------------------------------|
F-------------------------------------------------------------------------------------------------|
C-------------------------------------------------------------------------------------------------|
G-------------------------------------------------------------------------------------------------|
C-0--0--0--0--0--0--0--0--0--0--0--0--0--0--0--0--0--0--0--0--0--0--0--0--0--0--0--0--0--0--0--0--|
Pm.  .  .  .  .  .  .  .  .  .  .  .  .  .  .  .  .  .  .  .  .  .  .  .  .  .  .  .  .  .  .  .

Guitar 2
D-------------------------------------------------------------------------------------------------|
A-------------------------------------------------------------------------------------------------|
F-14-12-10-10-12-12-12-12-15-14-12-12-14-14-14-14-17-15-14-14-15-15-15-15-19-17-15-15-17-17-17-17-|
C-------------------------------------------------------------------------------------------------|
G-------------------------------------------------------------------------------------------------|
C-------------------------------------------------------------------------------------------------|

Guitar 3
D-------------------------------------------------------------------------------------------------|
A-------------------------------------------------------------------------------------------------|
F-------------------------------------------------------------------------------------------------|
C-15-14-12-12-14-14-14-14-17-15-14-14-15-15-15-15-19-17-15-15-17-17-17-17-20-19-17-17-19-19-19-19-|
G-------------------------------------------------------------------------------------------------|
C-------------------------------------------------------------------------------------------------|

Guitar 1
D-------------------------------------------------------------------------------------------------|
A-------------------------------------------------------------------------------------------------|
F-------------------------------------------------------------------------------------------------|
C-------------------------------------------------------------------------------------------------|
G-------------------------------------------------------------------------------------------------|
C-8--8--8--8--8--8--8--8--8--8--8--8--8--8--8--8--8--8--8--8--8--8--8--8--8--8--8--8--8--8--8--8--|
Pm.  .  .  .  .  .  .  .  .  .  .  .  .  .  .  .  .  .  .  .  .  .  .  .  .  .  .  .  .  .  .  .

Guitar 2
D-------------------------13-14-15-13----------13-14-16-17-14-------------------------------------|
A-15-17-18-15----------15-------------12----12----------------18-17-15----18-18-18-18-17-17-17-17-|
F-------------15----15-------------------12----------------------------15-------------------------|
C----------------15-------------------------------------------------------------------------------|
G-------------------------------------------------------------------------------------------------|
C-------------------------------------------------------------------------------------------------|

Guitar 1
D-------------------------------------------------------------------------------------------------|
A-------------------------------------------------------------------------------------------------|
F-------------------------------------------------------------------------------------------------|
C-------------------------------------------------------------------------------------------------|
G-------------------------------------------------------------------------------------------------|
C-8--8--8--8--8--8--8--8--8--8--8--8--8--8--8--8--8--8--8--8--8--8--8--8--8--8--8--8--8--8--8--8--|
Pm.  .  .  .  .  .  .  .  .  .  .  .  .  .  .  .  .  .  .  .  .  .  .  .  .  .  .  .  .  .  .  .

Guitar 2 & 3 (Tapping is involved, but not enough room to put it in)
D-------------------------------------------------------------------------------------------------|
A-15-13-12-11-------------14-11-10-8--------------11-9--7--6--------------11b~~~~~~~~-11~~~~~~~~~-|
F-------------12--10--9---------------12--10--9---------------9---7---6---------------------------|
C-------------------------------------------------------------------------------------------------|
G-------------------------------------------------------------------------------------------------|
C-------------------------------------------------------------------------------------------------|

Guitar 1
D-------------------------------------------------------------------------------------------------|
A-------------------------------------------------------------------------------------------------|
F-------------------------------------------------------------------------------------------------|
C-------------------------------------------------------------------------------------------------|
G-------------------------------------------------------------------------------------------------|
C-0--0--0--0--0--0--0--0--0--0--0--0--0--0--0--0--0--0--0--0--0--0--0--0--0--0--0--0--0--0--0--0--|
Pm.  .  .  .  .  .  .  .  .  .  .  .  .  .  .  .  .  .  .  .  .  .  .  .  .  .  .  .  .  .  .  .

Guitar 2
D-15-17-13-13-------------15-17-13-13-------------15-17-13-13-------------------------------------|
A-------------------------------------------------------------------------------------------------|
F-------------17-14-17----------------17-14-17----------------17-14-17----17b~~~~~~~~~~~~~~~~~~~~-|
C-------------------------------------------------------------------------------------------------|
G-------------------------------------------------------------------------------------------------|
C-------------------------------------------------------------------------------------------------|

Guitar 3
D-------------------------------------------------------------------------20b~~~~~~~~~~~~~~~~~~~~-|
A-17-18-15-15-17-15-17----17-18-15-15-17-15-17----17-18-15-15-17-15-17----------------------------|
F-------------------------------------------------------------------------------------------------|
C-------------------------------------------------------------------------------------------------|
G-------------------------------------------------------------------------------------------------|
C-------------------------------------------------------------------------------------------------|

Guitar 1
D-------------------------------------------------------------------------------------------------|
A-------------------------------------------------------------------------------------------------|
F-------------------------------------------------------------------------------------------------|
C-------------------------------------------------------------------------------------------------|
G-------------------------------------------------------------------------------------------------|
C-0--0--0--0--0--0--0--0--0--0--0--0--0--0--0--0--0--0--0--0--0--0--0--0--0--0--0--0--0--0--0--0--|
Pm.  .  .  .  .  .  .  .  .  .  .  .  .  .  .  .  .  .  .  .  .  .  .  .  .  .  .  .  .  .  .  .

Guitar 2
D----------------13--15--16*b~~~~~~~~~~~~~~~~~~~-13-15-13-12--13--12--10--12b~~~~~~~~~~~~~~~~~~~~-|
A----------13-15----------------------------------------------------------------------------------|
F-14-15-17----------------------------------------------------------------------------------------|
C-------------------------------------------------------------------------------------------------|
G-------------------------------------------------------------------------------------------------|
C-------------------------------------------------------------------------------------------------|

Guitar 1
D-------------------------------------------------------------------------------------------------|
A-------------------------------------------------------------------------------------------------|
F-------------------------------------------------------------------------------------------------|
C-------------------------------------------------------------------------------------------------|
G-------------------------------------------------------------------------------------------------|
C-8--8--8--8--8--8--8--8--8--8--8--8--8--8--8--8--8--8--8--8--8--8--8--8--8--8--8--8--8--8--8--8--|
Pm.  .  .  .  .  .  .  .  .  .  .  .  .  .  .  .  .  .  .  .  .  .  .  .  .  .  .  .  .  .  .  .

Guitar 2
D-12--13--12--10----------------------------------------------------------------------------------|
A-----------------13--11--10--11--10--8---6-------------------------------------------------------|
F---------------------------------------------9---10--9---7---------------------------------------|
C-------------------------------------------------------------12--10--9---8~~~~~~~~~~~~~~~~~\~~~~-|
G-------------------------------------------------------------------------------------------------|
C-------------------------------------------------------------------------------------------------|

Guitar 1
D-------------------------------------------------------------------------------------------------|
A-------------------------------------------------------------------------------------------------|
F-------------------------------------------------------------------------------------------------|
C-------------------------------------------------------------------------------------------------|
G-------------------------------------------------------------------------------------------------|
C-8--8--8--8--8--8--8--8--8--8--8--8--8--8--8--8--8--8--8--8--8--8--8--8--8--8--8--8--8--8--8--8--|
Pm.  .  .  .  .  .  .  .  .  .  .  .  .  .  .  .  .  .  .  .  .  .  .  .  .  .  .  .  .  .  .  .

Guitar 2
D-------------------------------------------------------------------------------------------------|
A-------------------------------------------------------------------------------------------------|
F-------------------------------------------------------------------------------------------------|
C-12-8--8--12-8--8--12-8--14-10-10-14-10-10-14-10-15-12-12-15-12-12-15-12-17-14-14-17-14-14-17-14-|
G-------------------------------------------------------------------------------------------------|
C-------------------------------------------------------------------------------------------------|

Guitar 3
D-------------------------------------------------------------------------------------------------|
A-------------------------------------------------------------------------------------------------|
F-------------------------------------------------------------------------------------------------|
C-12-8--8--12-8--8--12-8--14-10-10-14-10-10-14-10-15-12-12-15-12-12-15-12-17-14-14-17-14-14-17-14-|
G-------------------------------------------------------------------------------------------------|
C-------------------------------------------------------------------------------------------------|
Pm.  .  .  .  .  .  .  .  .  .  .  .  .  .  .  .  .  .  .  .  .  .  .  .  .  .  .  .  .  .  .  .

Guitar 1
D-------------------------------------------------------------------------------------------------|
A-------------------------------------------------------------------------------------------------|
F-------------------------------------------------------------------------------------------------|
C-0-----0-----0-----------0-----0-----0-----------0-----0-----0-----------0-----0-----0-----------|
G-0-----0-----0-----------0-----0-----0-----------0-----0-----0-----------0-----0-----0-----------|
C-0-----0-----0-----------0-----0-----0-----------0-----0-----0-----------0-----0-----0-----------|

Guitar 2
D-------------------------------------------------------------------------13----15----17\~~~~~~~~-|
A-13----15----17----------15----17----18----------17----18----20----------------------------------|
F-------------------------------------------------------------------------------------------------|
C-------------------------------------------------------------------------------------------------|
G-------------------------------------------------------------------------------------------------|
C-------------------------------------------------------------------------------------------------|

Guitar 3
D-------------------------------------------------------------------------------------------------|
A-------------------------------------------------------------------------------------------------|
F-------------------------------------------------------------------------------------------------|
C-10----12----14----------12----14----15----------14----15----17----------15----17----19\~~~~~~~~-|
G-------------------------------------------------------------------------------------------------|
C-------------------------------------------------------------------------------------------------|

Guitar 1
D-------------------------------------------------------------------------------------------------|
A-------------------------------------------------------------------------------------------------|
F-------------------------------------------------------------------------------------------------|
C-8--8--8--8--8--8--8--8--8-----8-----------------------------------------------------------------|
G-8--8--8--8--8--8--8--8--8-----8-----------------------------------------------------------------|
C-8--8--8--8--8--8--8--8--8-----8-----------------------------------------------------------------|
Pm.  .  .  .  .  .  .  .  .     .

Guitar 2
D-------------------------------------------------------------------------------------------------|
A-------------------------------------------------------------------------5--6--8--8--6--8--10-10-|
F-------------------------------------------------5--7--9--9--7--9--10-10-------------------------|
C-------------------------7--8--10-10-9--10-12-12-------------------------------------------------|
G-------------7--8--10-10-------------------------------------------------------------------------|
C-8--10-12-12-------------------------------------------------------------------------------------|
Pm.  .  .  .  .  .  .  .  .  .  .  .

Guitar 3
D-------------------------------------------------------------------------------------------------|
A-------------------------------------------------------------------------------------------------|
F-------------------------------------------------------------------------------------------------|
C-------------------------------------8--9--10-10-------------------------------------------------|
G-------------------------------------------------------------------------------------------------|
C-------------------------------------------------------------------------------------------------|
Pm                                    .  .  .  .

Guitar 1
D-------------------------------------------------------------------------------------------------|
A-------------------------------------------------------------------------------------------------|
F-------------------------------------------------------------------------------------------------|
C-8--8--8--8--8--8--8--8--8-----8-----------------------------------------------------------------|
G-8--8--8--8--8--8--8--8--8-----8-----------------------------------------------------------------|
C-8--8--8--8--8--8--8--8--8-----8-----------------------------------------------------------------|
Pm.  .  .  .  .  .  .  .  .     .

Guitar 2
D-17-14-17-14-17-14-17-14-15-12-15-12-15-12-15-12-12-8--12-8--12-8--12-8--13-13-13-13-12-12-12-12-|
A-------------------------------------------------------------------------------------------------|
F-------------------------------------------------------------------------------------------------|
C-------------------------------------------------------------------------------------------------|
G-------------------------------------------------------------------------------------------------|
C-------------------------------------------------------------------------------------------------|

Guitar 3
D-------------------------------------------------------------------------------------------------|
A-------------------------------------------------------------------------------------------------|
F-14-11-14-11-14-11-9--9--12-9--12-9--12-9--5--5--9--5--9--5--9--5--9--5--10-10-10-10-9--9--9--9--|
C-------------------------------------------------------------------------------------------------|
G-------------------------------------------------------------------------------------------------|
C-------------------------------------------------------------------------------------------------|

Guitar 1
D-------------------------------------------------------------------------------------------------|
A-------------------------------------------------------------------------------------------------|
F-------------------------------------------------------------------------------------------------|
C-0--0--0--0--0--0--0--0--0-----0-----------------------------------------------------------------|
G-0--0--0--0--0--0--0--0--0-----0-----------------------------------------------------------------|
C-0--0--0--0--0--0--0--0--0-----0-----------------------------------------------------------------|
Pm.  .  .  .  .  .  .  .  .     .

Guitar 2
D-17----------------------18----------------------20----------------------------------------------|
A----17----------------19----18----------------18----20----------------18-20-18----------------18-|
F-------19----------19----------19----------19----------21----------21----------21----------21----|
C----------19----19----------------20----20----------------22----22----------------22----22-------|
G-------------19----------------------20----------------------22----------------------22----------|
C-------------------------------------------------------------------------------------------------|

Guitar 3
D-17----------------------18----------------------20----------------------------------------------|
A-------------------------------------------------------------------------20----------------------|
F-------------------------------------------------------------------------------------------------|
C-------------------------------------------------------------------------------------------------|
G-------------------------------------------------------------------------------------------------|
C-------------------------------------------------------------------------------------------------|

Guitar 1
D-------------------------------------------------------------------------------------------------|
A-------------------------------------------------------------------------------------------------|
F-------------------------------------------------------------------------------------------------|
C-0--0--0--0--0--0--0--0--0-----0-----------------------------------------------------------------|
G-0--0--0--0--0--0--0--0--0-----0-----------------------------------------------------------------|
C-0--0--0--0--0--0--0--0--0-----0-----------------------------------------------------------------|
Pm.  .  .  .  .  .  .  .  .     .


Guitar 2
D-17----------------------18----------------------20----------------------20~~~~~~~~~~~~~~~~~~~~~-|
A----17----------------19----18----------------18----20----------------18-------------------------|
F-------19----------19----------19----------19----------21----------21----------------------------|
C----------19----19----------------20----20----------------22----22-------------------------------|
G-------------19----------------------20----------------------22----------------------------------|
C-------------------------------------------------------------------------------------------------|

Guitar 3
D-17----------------------18----------------------20----------------------20~~~~~~~~~~~~~~~~~~~|
A----------------------------------------------------------------------------------------------|
F----------------------------------------------------------------------------------------------|
C----------------------------------------------------------------------------------------------|
G----------------------------------------------------------------------------------------------|
C----------------------------------------------------------------------------------------------|

Guitar 1
D-------------------------------------------------------------------------------------------------|
A-------------------------------------------------------------------------------------------------|
F-------------------------------------------------------------------------------------------------|
C-8--8--8--8--8--8--8--8--8-----8-----------------------------------------------------------------|
G-8--8--8--8--8--8--8--8--8-----8-----------------------------------------------------------------|
C-8--8--8--8--8--8--8--8--8-----8-----------------------------------------------------------------|
Pm.  .  .  .  .  .  .  .  .     .

Guitar 2 (Echo Effect)
D-------------------------------------------------------------------------------------------------|
A-------------------------------------------------------------------------------------------------|
F-------------------9-----10----9-----------------------------------9-----10----9-----------------|
C-------------8-----------------------10----8-----------------8-----------------------10----8-----|
G-5-----8-----------------------------------------5-----8-----------------------------------------|
C-------------------------------------------------------------------------------------------------|
Pm.     .     .     .     .     .     .     .     .     .     .     .     .     .     .     .

Guitar 3 continued
D-~~~~~~~~~~~~~~~~~~~~~~~~~~~~~~~~~~~~~~~~~~~~~~~~~~~~~~~~~~~~~~~~~~~~~~~~~~~~~~~~~~~~~~~~~~~~~~~-
A-------------------------------------------------------------------------------------------------|
F-------------------------------------------------------------------------------------------------|
C-------------------------------------------------------------------------------------------------|
G-------------------------------------------------------------------------------------------------|
C-------------------------------------------------------------------------------------------------|

Guitar 1
D-------------------------------------------------------------------------------------------------|
A-------------------------------------------------------------------------------------------------|
F-------------------------------------------------------------------------------------------------|
C-8--8--8--8--8--8--8--8--8-----8-----------------------------------------------------------------|
G-8--8--8--8--8--8--8--8--8-----8-----------------------------------------------------------------|
C-8--8--8--8--8--8--8--8--8-----8-----------------------------------------------------------------|
Pm.  .  .  .  .  .  .  .  .     .

Guitar 2 (Echo Effect)
D-------------------------------------------------------------10----------12----------13----------|
A-------------------------------------------------11----------------------------------------------|
F-------7-----------7-----10----7-----10----7-----------10----------10----------10----------10----|
C-8-----------8-----------------------------------------------------------------------------------|
G-------------------------------------------------------------------------------------------------|
C-------------------------------------------------------------------------------------------------|
Pm.     .     .     .     .     .     .     .

Guitar 1
D-------------------------------------------------------------------------------------------------|
A-------------------------------------------------------------------------------------------------|
F-------------------------------------------------------------------------------------------------|
C-0--0--0--0--0--0--0--0--0-----0-----------------------------------------------------------------|
G-0--0--0--0--0--0--0--0--0-----0-----------------------------------------------------------------|
C-0--0--0--0--0--0--0--0--0-----0-----------------------------------------------------------------|
Pm.  .  .  .  .  .  .  .  .     .

Guitar 2
D-17----------------------13----12----------------13----12----------------12----13----13----15----|
A-------18----------------------------15----------------------15----------------------------------|
F-------------19----------------------------14----------------------14----------------------------|
C-------------------19----------------------------------------------------------------------------|
G-------------------------------------------------------------------------------------------------|
C-------------------------------------------------------------------------------------------------|

Guitar 1
D-------------------------------------------------------------------------------------------------|
A-------------------------------------------------------------------------------------------------|
F-------------------------------------------------------------------------------------------------|
C-0--0--0--0--0--0--0--0--0-----0-----------------------------------------------------------------|
G-0--0--0--0--0--0--0--0--0-----0-----------------------------------------------------------------|
C-0--0--0--0--0--0--0--0--0-----0-----------------------------------------------------------------|
Pm.  .  .  .  .  .  .  .  .     .

Guitar 2
D-17----------------------13----12----------------13----12----------------12----13----13----15----|
A-------18----------------------------15----------------------15----------------------------------|
F-------------19----------------------------14----------------------14----------------------------|
C-------------------19----------------------------------------------------------------------------|
G-------------------------------------------------------------------------------------------------|
C-------------------------------------------------------------------------------------------------|

Guitar 1
D-------------------------------------------------------------------------------------------------|
A-------------------------------------------------------------------------------------------------|
F-------------------------------------------------------------------------------------------------|
C-0-----0~~~~~~~~~~-0-----0~~~~~~~~~~-0-----0~~~~~~~~~~-0-----0~~~~~~~~~~-0-----0-----0-----0-----|
G-0-----0~~~~~~~~~~-0-----0~~~~~~~~~~-0-----0~~~~~~~~~~-0-----0~~~~~~~~~~-0-----0-----0-----0-----|
C-0-----0~~~~~~~~~~-0-----0~~~~~~~~~~-0-----0~~~~~~~~~~-0-----0~~~~~~~~~~-0-----0-----0-----0-----|
Pm.     .           .     .           .     .           .     .           .     .     .     .

Guitar 2
D-17----17----17----------------------------------------------------------------------------------|
A-------------------18----18----18----20----20----20----17----17----17----18----17----15----15----|
F-------------------------------------------------------------------------------------------------|
C-------------------------------------------------------------------------------------------------|
G-------------------------------------------------------------------------------------------------|
C-------------------------------------------------------------------------------------------------|

Guitar 3
D-------------------------------------------------------------------------------------------------|
A-------------------------------------------------------------------------------------------------|
F-14----14----14----------------------------------------------------------------------------------|
C-------------------15----15----15----17----17----17----14----14----14----15----14----12----12----|
G-------------------------------------------------------------------------------------------------|
C-------------------------------------------------------------------------------------------------|
Pm.     .     .     .     .     .     .     .     .     .     .     .     .     .     .     .

Guitar 1
D-------------------------------------------------------------------------------------------------|
A-------------------------------------------------------------------------------------------------|
F-------------------------------------------------------------------------------------------------|
C-0-----0~~~~~~~~~~-0-----0~~~~~~~~~~-0-----0~~~~~~~~~~-0-----0~~~~~~~~~~-0-----0-----0-----0-----|
G-0-----0~~~~~~~~~~-0-----0~~~~~~~~~~-0-----0~~~~~~~~~~-0-----0~~~~~~~~~~-0-----0-----0-----0-----|
C-0-----0~~~~~~~~~~-0-----0~~~~~~~~~~-0-----0~~~~~~~~~~-0-----0~~~~~~~~~~-0-----0-----0-----0-----|
Pm.     .           .     .           .     .           .     .           .     .     .     .

Guitar 2
D-17----17----17----------------------------------------------------------------------------------|
A-------------------18----18----18----20----20----20----17----17----17----18----17----15----15----|
F-------------------------------------------------------------------------------------------------|
C-------------------------------------------------------------------------------------------------|
G-------------------------------------------------------------------------------------------------|
C-------------------------------------------------------------------------------------------------|

Guitar 3
D-------------------------------------------------------------------------------------------------|
A-------------------------------------------------------------------------------------------------|
F-14----14----14----------------------------------------------------------------------------------|
C-------------------15----15----15----17----17----17----14----14----14----15----14----12----12----|
G-------------------------------------------------------------------------------------------------|
C-------------------------------------------------------------------------------------------------|
Pm.     .     .     .     .     .     .     .     .     .     .     .     .     .     .     .

Guitar 1
D-------------------------------------------------------------------------------------------------|
A-------------------------------------------------------------------------------------------------|
F-------------------------------------------------------------------------------------------------|
C-0-----0~~~~~~~~~~-0-----0~~~~~~~~~~-0-----0~~~~~~~~~~-0-----0~~~~~~~~~~-0-----0-----0-----0-----|
G-0-----0~~~~~~~~~~-0-----0~~~~~~~~~~-0-----0~~~~~~~~~~-0-----0~~~~~~~~~~-0-----0-----0-----0-----|
C-0-----0~~~~~~~~~~-0-----0~~~~~~~~~~-0-----0~~~~~~~~~~-0-----0~~~~~~~~~~-0-----0-----0-----0-----|
Pm.     .           .     .           .     .           .     .           .     .     .     .

Guitar 2
D-------------------------------------------------------17----17----17----20----20----20----20----|
A-15----15----15----17----17----17----18----18----18----------------------------------------------|
F-------------------------------------------------------------------------------------------------|
C-------------------------------------------------------------------------------------------------|
G-------------------------------------------------------------------------------------------------|
C-------------------------------------------------------------------------------------------------|

Guitar 3
D-------------------------------------------------------------------------------------------------|
A-------------------------------------------------------------------------------------------------|
F-------------------------------------------------------14----14----14----17----17----17----17----|
C-12----12----12----14----14----14----15----15----15----------------------------------------------|
G-------------------------------------------------------------------------------------------------|
C-------------------------------------------------------------------------------------------------|
pm.     .     .     .     .     .     .     .     .     .     .     .     .     .     .     .

Bridge

Guitar 1
D-----------------------------------------------------------------|
A-----------------------------------------------------------------|
F-----------------------------------------------------------------|
C-8~~~~~~~~~~~~~~~~~~~~~~~~~~~~~~~~~~~~~~~~~~~~~~~~~~~~~~~~~~~~~~-
G-8~~~~~~~~~~~~~~~~~~~~~~~~~~~~~~~~~~~~~~~~~~~~~~~~~~~~~~~~~~~~~~-
C-8~~~~~~~~~~~~~~~~~~~~~~~~~~~~~~~~~~~~~~~~~~~~~~~~~~~~~~~~~~~~~~-

Guitar 2
D-20b~~~~~~~~~~~~~~~~~~~~~~~~~~~~~~~~~~~~~~~~~~~~~~~~~~~~~~~~~~~~-
A-----------------------------------------------------------------|
F-----------------------------------------------------------------|
C-----------------------------------------------------------------|
G-----------------------------------------------------------------|
C-----------------------------------------------------------------|

Guitar 3
D-----------------------------------------------------------------|
A-----------------------------------------------------------------|
F-17b~~~~~~~~~~~~~~~~~~~~~~~~~~~~~~~~~~~~~~~~~~~~~~~~~~~~~~~~~~~~-
C-----------------------------------------------------------------|
G-----------------------------------------------------------------|
C-----------------------------------------------------------------|

Guitar 2
D-~~~~~~~~~~~~~~~~~~~~~~~~~~~~~~~~~~~~~~~~~~~~~~~-15~~~~~~~~b~~~~-
A-----------------------------------------------------------------|
F-----------------------------------------------------------------|
C-----------------------------------------------------------------|
G-----------------------------------------------------------------|
C-----------------------------------------------------------------|

Guitar 2
D-~~~~~~~~~~~~~~~~~~~~~~~~~~~~~~~~~~~~~~~~~~~~~~~~~~~~~~~~~~~~~~~-
A-----------------------------------------------------------------|
F-----------------------------------------------------------------|
C-----------------------------------------------------------------|
G-----------------------------------------------------------------|
C-----------------------------------------------------------------|

Guitar 2
D-----------------------------------------------------------------
A-17~~~~~~~~~~~~~~~~~~~~~~~~~~~~~~~~~~~~~~~~~~~~~~~~~~~~~~~~~~~~~-
F-----------------------------------------------------------------|
C-----------------------------------------------------------------|
G-----------------------------------------------------------------|
C-----------------------------------------------------------------|

Guitar 2
D-----------------------------------------------------------------
A-18~~~~~~~~~~~~~~~~~~~~~~~~~~~~~~~~~~~~~~~~~~~~~~~~~~~~~~~~~~~~~-
F-----------------------------------------------------------------|
C-----------------------------------------------------------------|
G-----------------------------------------------------------------|
C-----------------------------------------------------------------|

Guitar 2
D-----------------------------------------------------------------
A-17~~~~~~~~~~~~~~~~~~~~~~~~~~~~~~~~~~~~~~~~~~~~~~~~~~~~~~~~~~~~~-
F-----------------------------------------------------------------|
C-----------------------------------------------------------------|
G-----------------------------------------------------------------|
C-----------------------------------------------------------------|

Guitar 2
D-17~~~~~~~~~~~~~~~~~~~~~~~~~~~~~~~~~~~~~~~~~~~~~~~~~~~~~~~~~~~~~-
A-----------------------------------------------------------------|
F-----------------------------------------------------------------|
C-----------------------------------------------------------------|
G-----------------------------------------------------------------|
C-----------------------------------------------------------------|

Guitar 2
D-----------------------------------------------------------------|
A-17~~~~~~~~~~~~~~~~~~~~~~~~~~~~~~~~~~~~~~~~~~~~~~----------------|
F-----------------------------------------------------------------|
C-----------------------------------------------------------------|
G-----------------------------------------------------------------|
C-----------------------------------------------------------------|

Chorus 2

Guitar 1
D-----------------------------------------------------------------|
A-----------------------------------------------------------------|
F-----------------------------------------------------------------|
C-8/--9---9---9---9---9---9---9---9---9---9---9---9---9---9---9---|
G-8/--9---9---9---9---9---9---9---9---9---9---9---9---9---9---9---|
C-8/--9---9---9---9---9---9---9---9---9---9---9---9---9---9---9---|

Guitar 2
D-----------------------------------------------------------------|
A-----------------------------------------------------------------|
F-10/-11--11--11--11--11--11--11--11--11--11--11--11--10--10--10--|
C-x/--x---x---x---x---x---x---x---x---x---x---x---x---x---x---x---|
G-8/--9---9---9---9---9---9---9---9---9---9---9---9---8---8---8---|
C-----------------------------------------------------------------|

Guitar 1
D-----------------------------------------------------------------|
A-----------------------------------------------------------------|
F-----------------------------------------------------------------|
C-9/--11--11--11--11--11--11--11--11--11--11--11--11--11--11--11--|
G-9/--11--11--11--11--11--11--11--11--11--11--11--11--11--11--11--|
C-9/--11--11--11--11--11--11--11--11--11--11--11--11--11--11--11--|

Guitar 2
D-----------------------------------------------------------------|
A-----------------------------------------------------------------|
F-10/-11--11--11--11--11--11--11--11--13--13--13--13--13--13--13--|
C-x/--x---x---x---x---x---x---x---x---x---x---x---x---x---x---x---|
G-8/--9---9---9---9---9---9---9---9---11--11--11--11--11--11--11--|
C-----------------------------------------------------------------|

Guitar 1
D-----------------------------------------------------------------|
A-----------------------------------------------------------------|
F-----------------------------------------------------------------|
C-11/-13--13--13--13--13--13--13--13--13--13--13--13--13--13--13--|
G-11/-13--13--13--13--13--13--13--13--13--13--13--13--13--13--13--|
C-11/-13--13--13--13--13--13--13--13--13--13--13--13--13--13--13--|

Guitar 2
D-----------------------------------------------------------------|
A-----------------------------------------------------------------|
F-13/-15--15--15--15--15--15--15--15--15--15--15--15--15--15--15--|
C-x-/-x---x---x---x---x---x---x---x---x---x---x---x---x---x---x---|
G-11/-13--13--13--13--13--13--13--13--13--13--13--13--13--13--13--|
C-----------------------------------------------------------------|

Guitar 1
D-----------------------------------------------------------------|
A-----------------------------------------------------------------|
F-------------------------------------11--11--11--11--11--11--11--|
C-8---8---8---8---8---8---8---8---8---11--11--11--11--11--11--11--|
G-8---8---8---8---8---8---8---8---8---9---9---9---9---9---9---9---|
C-8---8---8---8---8---8---8---8---8-------------------------------|

Guitar 2
D-----------------------------------------------------------------|
A-----------------------------------------------------------------|
F-15--15--15--15--15--15--15--15--15--11--11--11--11--11--11--11--|
C-x---x---x---x---x---x---x---x---x---x---x---x---x---x---x---x---|
G-13--13--13--13--13--13--13--13--13--9---9---9---9---9---9---9---|
C-----------------------------------------------------------------|

Guitar 1
D-----------------------------------------------------------------|
A-----------------------------------------------------------------|
F-----------------------------------------------------------------|
C-8/--9---9---9---9---9---9---9---9---9---9---9---9---9---9---9---|
G-8/--9---9---9---9---9---9---9---9---9---9---9---9---9---9---9---|
C-8/--9---9---9---9---9---9---9---9---9---9---9---9---9---9---9---|

Guitar 2
D-t18-14p-11-t18-14p11h14t18p14p11--------------------------------|
A-----------------------------------------11------11h-12p-11------|
F---------------------------------8---10------10------------------|
C-----------------------------------------------------------------|
G-----------------------------------------------------------------|
C-----------------------------------------------------------------|
Pm                                .   .       .

Guitar 1
D-----------------------------------------------------------------|
A-----------------------------------------------------------------|
F-----------------------------------------------------------------|
C-9/--11--11--11--11--11--11--11--11--11--11--11--11--11--11--11--|
G-9/--11--11--11--11--11--11--11--11--11--11--11--11--11--11--11--|
C-9/--11--11--11--11--11--11--11--11--11--11--11--11--11--11--11--|

Guitar 2
D-------------------------------------------------13--14--13------|
A-t21-16p-14-t21-16p14h16t21p16p14--------11----------------------|
F---------------------------------8---10------10------------------|
C-----------------------------------------------------------------|
G-----------------------------------------------------------------|
C-----------------------------------------------------------------|
Pm                                .   .       .

Guitar 1
D-----------------------------------------------------------------|
A-----------------------------------------------------------------|
F-----------------------------------------------------------------|
C-11/-13--13--13--13--13--13--13--13--13--13--13--13--13--13--13--|
G-11/-13--13--13--13--13--13--13--13--13--13--13--13--13--13--13--|
C-11/-13--13--13--13--13--13--13--13--13--13--13--13--13--13--13--|

Guitar 2
D-----------------------------------------------------------------|
A-t18p-16p-11-t18p-16p-11-----------------------------------------|
F-------------------------t23p-15p-11-t23p-15p-11-t20p-15-t22p-15-|
C-----------------------------------------------------------------|
G-----------------------------------------------------------------|
C-----------------------------------------------------------------|

Guitar 1
D-----------------------------------------------------------------|
A-----------------------------------------------------------------|
F-------------------------------------11--11--11--11--11--11--11--|
C-8---8---8---8---8---8---8---8---8---11--11--11--11--11--11--11--|
G-8---8---8---8---8---8---8---8---8---9---9---9---9---9---9---9---|
C-8---8---8---8---8---8---8---8---8-------------------------------|

Guitar 2
D---------------------------------------13------14-14-14-14-13~~~-|
A-t21-18p-14-t21-18p-14-t21-18p-11--14------14--------------------|
F-----------------------------------------------------------------|
C-----------------------------------------------------------------|
G-----------------------------------------------------------------|
C-----------------------------------------------------------------|
Pm                              .   .       .

Guitar 1
D-----------------------------------------------------------------|
A-----------------------------------------------------------------|
F-----------------------------------------------------------------|
C-8/--9---9---9---9---9---9---9---9---9---9---9---9---9---9---9---|
G-8/--9---9---9---9---9---9---9---9---9---9---9---9---9---9---9---|
C-8/--9---9---9---9---9---9---9---9---9---9---9---9---9---9---9---|

Guitar 2
D-t18-14p-11-t18-14p11h14t18p14p11--------------------------------|
A-----------------------------------------11------11h-12p-11------|
F---------------------------------8---10------10------------------|
C-----------------------------------------------------------------|
G-----------------------------------------------------------------|
C-----------------------------------------------------------------|
Pm                                .   .       .

Guitar 1
D-----------------------------------------------------------------|
A-----------------------------------------------------------------|
F-----------------------------------------------------------------|
C-9/--11--11--11--11--11--11--11--11--11--11--11--11--11--11--11--|
G-9/--11--11--11--11--11--11--11--11--11--11--11--11--11--11--11--|
C-9/--11--11--11--11--11--11--11--11--11--11--11--11--11--11--11--|

Guitar 2
D-------------------------------------------------13--14--13------|
A-t21-16p-14-t21-16p14h16t21p16p14--------11----------------------|
F---------------------------------8---10------10------------------|
C-----------------------------------------------------------------|
G-----------------------------------------------------------------|
C-----------------------------------------------------------------|
Pm                                .   .       .

Guitar 1
D-----------------------------------------------------------------|
A-----------------------------------------------------------------|
F-----------------------------------------------------------------|
C-11/-13--13--13--13--13--13--13--13--13--13--13--13--13--13--13--|
G-11/-13--13--13--13--13--13--13--13--13--13--13--13--13--13--13--|
C-11/-13--13--13--13--13--13--13--13--13--13--13--13--13--13--13--|

Guitar 2
D-----------------------------------------------------------------|
A-t18p-16p-11-t18p-16p-11-----------------------------------------|
F-------------------------t23p-15p-11-t23p-15p-11-t20p-15-t22p-15-|
C-----------------------------------------------------------------|
G-----------------------------------------------------------------|
C-----------------------------------------------------------------|

Guitar 1
D-----------------------------------------------------------------|
A-----------------------------------------------------------------|
F-------------------------------------11--11--11--11--11--11--11--|
C-8---8---8---8---8---8---8---8---8---11--11--11--11--11--11--11--|
G-8---8---8---8---8---8---8---8---8---9---9---9---9---9---9---9---|
C-8---8---8---8---8---8---8---8---8-------------------------------|

Guitar 2
D---------------------------------------13------14-14-14-14-13~~~-|
A-t21-18p-14-t21-18p-14-t21-18p-11--14------14--------------------|
F-----------------------------------------------------------------|
C-----------------------------------------------------------------|
G-----------------------------------------------------------------|
C-----------------------------------------------------------------|
Pm                              .   .       .

Guitar 1
D-----------------------------------------------------------------|
A-----------------------------------------------------------------|
F-----------------------------------------------------------------|
C-8/--9---9---9---9---9---9---9---9---9---9---9---9---9---9---9---|
G-8/--9---9---9---9---9---9---9---9---9---9---9---9---9---9---9---|
C-8/--9---9---9---9---9---9---9---9---9---9---9---9---9---9---9---|

Guitar 2
D-t18-14p-11-t18-14p11h14t18p14p11--------------------------------|
A-----------------------------------------11------11h-12p-11------|
F---------------------------------8---10------10------------------|
C-----------------------------------------------------------------|
G-----------------------------------------------------------------|
C-----------------------------------------------------------------|
Pm                                .   .       .

Guitar 1
D-----------------------------------------------------------------|
A-----------------------------------------------------------------|
F-----------------------------------------------------------------|
C-9/--11--11--11--11--11--11--11--11--11--11--11--11--11--11--11--|
G-9/--11--11--11--11--11--11--11--11--11--11--11--11--11--11--11--|
C-9/--11--11--11--11--11--11--11--11--11--11--11--11--11--11--11--|

Guitar 2
D-------------------------------------------------13--14--13------|
A-t21-16p-14-t21-16p14h16t21p16p14--------11----------------------|
F---------------------------------8---10------10------------------|
C-----------------------------------------------------------------|
G-----------------------------------------------------------------|
C-----------------------------------------------------------------|
Pm                                .   .       .

Guitar 1
D-----------------------------------------------------------------|
A-----------------------------------------------------------------|
F-----------------------------------------------------------------|
C-11/-13--13--13--13--13--13--13--13--13--13--13--13--13--13--13--|
G-11/-13--13--13--13--13--13--13--13--13--13--13--13--13--13--13--|
C-11/-13--13--13--13--13--13--13--13--13--13--13--13--13--13--13--|

Guitar 2
D-----------------------------------------------------------------|
A-t18p-16p-11-t18p-16p-11-----------------------------------------|
F-------------------------t23p-15p-11-t23p-15p-11-t20p-15-t22p-15-|
C-----------------------------------------------------------------|
G-----------------------------------------------------------------|
C-----------------------------------------------------------------|

Guitar 1
D-----------------------------------------------------------------|
A-----------------------------------------------------------------|
F-------------------------------------11--11--11--11--11--11--11--|
C-8---8---8---8---8---8---8---8---8---11--11--11--11--11--11--11--|
G-8---8---8---8---8---8---8---8---8---9---9---9---9---9---9---9---|
C-8---8---8---8---8---8---8---8---8-------------------------------|

Guitar 2
D---------------------------------------13------14-14-14-14-13~~~-|
A-t21-18p-14-t21-18p-14-t21-18p-11--14------14--------------------|
F-----------------------------------------------------------------|
C-----------------------------------------------------------------|
G-----------------------------------------------------------------|
C-----------------------------------------------------------------|
Pm                              .   .       .

Outro

Guitar 1
D-----------------------------------------------------------------|
A-----------------------------------------------------------------|
F-----------------------------------------------------------------|
C-9~~~~~~~~~~~~~~~~~~~~~~~~~~~~~~~~~~~~~~~~~~~~~~~~~~~~~~~~~~~~~~~|
G-9~~~~~~~~~~~~~~~~~~~~~~~~~~~~~~~~~~~~~~~~~~~~~~~~~~~~~~~~~~~~~~~|
C-9~~~~~~~~~~~~~~~~~~~~~~~~~~~~~~~~~~~~~~~~~~~~~~~~~~~~~~~~~~~~~~~|

Guitar 2
D-14~~~~~~~~~~~~~~~~~~~~~~~~~~~~~~~~~~\~~~------------------------|
A-----------------------------------------------------------------|
F-----------------------------------------------------------------|
C-----------------------------------------------------------------|
G-----------------------------------------------------------------|
C-----------------------------------------------------------------|

Guitar 1 continued
D-----------------------------------------------------------------|
A-----------------------------------------------------------------|
F-----------------------------------------------------------------|
C-~~~~~~~~~~~~~~~~~~~~~~~~~~~~~~~~~~~~~~~~~~~~~~~~~~~~~~~~~~~~~~~-|
G-~~~~~~~~~~~~~~~~~~~~~~~~~~~~~~~~~~~~~~~~~~~~~~~~~~~~~~~~~~~~~~~-|
C-~~~~~~~~~~~~~~~~~~~~~~~~~~~~~~~~~~~~~~~~~~~~~~~~~~~~~~~~~~~~~~~-|

Tab Legend
h  -  hammer-on
p  -  pull-off
/  -  slide up
\  -  slide down
ps/-  pickslide up
ps\-  pickslide down
~  -  let ring
pm.-  palm mute
b  -  bend
r  -  return from bend
*  -  harmonic
x  -  dead note
^  -  Whammy bar
^\ -  Whammy bar (hold down)

Like I stated before, this song is awesome! It took me a long time to make this tab, so 
you donít think it is good, please donít kill me over it. Just tell me the problem, and 
fix it. Tell me how I did! Oh and one last thing... ROCK OUT!!!!
Tap to rate this tab
 
# A B C D E F G H I J K L M N O P Q R S T U V W X Y Z