Escape The Fate - World Around Me tab

                    WORLD AROUND ME - ESCAPE THE FATE

Alright so new song from etf's new self titled album.
Tuning is Drop C (CGCFAD).
It's extremely easy, slow solos, there's not much guitar in the song at
all but i'll tab out the chords for you too.
Any questions, comment or email me at zekai_a7x@hotmail.com


Chords used:
D|-1--------------1---|
A|-3----2----3----1---|
F|-2----2----3----2---|
C|-0----2----3----3---|
G|------0----1--------|
C|--------------------|

  Cm    G    Ab   Eb

Intro:
Cm-G-Cm-Ab-Eb-G-Cm

Verse:

I'm not trying to bring you down
Cm                            G
But you're lost in the clouds

I've never been one to complain
Cm                        Ab
But your world around me kills me softly
         Eb              G

I don't wanna be demanding
Ab
I just wanna know the reasons why
Eb
We live and die in a world of lies
G                             Cm
Addicted to the way we crash and burn
Ab
I gave it all away now it's your turn
Eb
Watching me watching you
G
Don't wanna see the worst in you
      G

Back to Cm for a bar or two


It's the same chord patterns for the all of the other verses so im not
going to write it all out.


Bridge:
D|-----------------------------------------------------------|
A|-----------------------------------------------------------|
F|-3--3-2----------------------------------------------------|
C|-3--3-2-5--5-3-1-------1----------------------0~-----------|
G|-1--1-0-5--5-3-1-------1----------------------0~-----------|
C|--------5--5-3-1-------1----------------------0~-----------|
                  i dont wanna see the worst in you


Then play what you'd play for the verse

Then the little bridge solo:
D|-----------------------------------------------------------------------|
A|-----------------------------------------------------------------------|
F|-5------------------------------12-10-9-12-14~----12-14--15-17--12~----|
C|---8-7-5--3--5--7-/12--10-8-10-----------------------------------------|
G|-----------------------------------------------------------------------|
C|-----------------------------------------------------------------------|

D|----------------------------------------------------------------------|
A|----------------------------------------------------------------------|
F|-10-9-12--12b(14)-10~----12-10~-----12-10~----12-10~-----12-10~-------|
C|----------------------------------------------------------------------|
G|----------------------------------------------------------------------|
C|----------------------------------------------------------------------|

Then this: (just wanna, just wanna....etc)
D|----------------------------------------------------------------------|
A|----------------------------------------------------------------------|
F|----------------------------------------------------------------------|
C|-0--0-0-0--0-0-0--0-0-0--0-0-0--0-0-0--0-0-0--0-0-0--0-0--------------|
G|-0--0-0-0--0-0-0--0-0-0--0-0-0--0-0-0--0-0-0--0-0-0--0-0--------------|
C|-0--0-0-0--0-0-0--0-0-0--0-0-0--0-0-0--0-0-0--0-0-0--0-0--------------|


Solo time!
D|-----------------------------------------------------------------------|
A|---------------------------------------------13------------------------|
F|-7~--9br(10)-9br(10)-9-10--12*b(14)--12b(14)----12b(14)----------------|
C|-----------------------------------------------------------------------|
G|-----------------------------------------------------------------------|
C|-----------------------------------------------------------------------|


D|----------------10h13p10------------12b(13)-12b(13)-10h12p10-----------|
A|-10-13-13b(15)-----------13-13b(15)--------------------------13-11-----|
F|-----------------------------------------------------------------------|
C|-----------------------------------------------------------------------|
G|-----------------------------------------------------------------------|
C|-----------------------------------------------------------------------|


D|-17b(18)-17b(18)--13h15p13--15b(17)--12-13-15br(17)--12-13-15br(17)----|
A|-----------------------------------------------------------------------|
F|-----------------------------------------------------------------------|
C|-----------------------------------------------------------------------|
G|-----------------------------------------------------------------------|
C|-----------------------------------------------------------------------|


D|-13-12~----------18~-----------|
A|-------------------------------|
F|-------------------------------|
C|-------------------------------|
G|-------------------------------|
C|-------------------------------|


Heavier chorus:
D|------------------------------------------------------------|
A|------------------------------------------------------------|
F|-3--3-3-3--3-3-3--3-3-3--3-3--------------------------------|
C|-3--3-3-3--3-3-3--3-3-3--3-3--3--3-3-3--3-3-3--3-3-3--3-3---|
G|-1--1-1-1--1-1-1--1-1-1--1-1--3--3-3-3--3-3-3--3-3-3--3-3---|
C|------------------------------3--3-3-3--3-3-3--3-3-3--3-3---|


D|------------------------------------------------------------|
A|------------------------------------------------------------|
F|-2--2-2-2--2-2-2--2-2-2--2-2----------------------2--2-2----|
C|-2--2-2-2--2-2-2--2-2-2--2-2-0--0-0-2--2-2-3--3-3-2--2-2----|
G|-0--0-0-0--0-0-0--0-0-0--0-0-0--0-0-2--2-2-3--3-3-0--0-0----|
C|-----------------------------0--0-0-2--2-2-3--3-3-----------|


D|------------------------------------------------------------|
A|------------------------------------------------------------|
F|-3--3-3-3--3-3-3--3-3-3--3-3--------------------------------|
C|-3--3-3-3--3-3-3--3-3-3--3-3--3--3-3-3--3-3-3--3-3-3--3-3---|
G|-1--1-1-1--1-1-1--1-1-1--1-1--3--3-3-3--3-3-3--3-3-3--3-3---|
C|------------------------------3--3-3-3--3-3-3--3-3-3--3-3---|


D|------------------------------------------------------------|
A|------------------------------------------------------------|
F|-2--2-2-2--2-2-2--2-2-2--2-2-2--2-2-2--2-2-2--2-2-2--2-2----|
C|-2--2-2-2--2-2-2--2-2-2--2-2-2--2-2-2--2-2-2--2-2-2--2-2----|
G|-0--0-0-0--0-0-0--0-0-0--0-0-0--0-0-0--0-0-0--0-0-0--0-0----|
C|------------------------------------------------------------|


Outro:
D|------------------------------------------|
A|------------------------------------------|
F|-3--3-2-----------------------------------|
C|-3--3-2-5--5-3-1--------------1-----0~----|
G|-1--1-0-5--5-3-1--------------1-----0~----|
C|--------5--5-3-1--------------1-----0~----|


Do this a bunch of times before you end:

D|-----5h6-5-----5h6-5-----5h6-5-----5h65-----|
A|----7-----7---7-----7---7-----7---7----7----|
F|---7-------7-7-------7-7-------7-7------7---|
C|--0---------0---------0---------0-----------|
G|--------------------------------------------|
C|--------------------------------------------|

And there she is, enjoy :)
Tap to rate this tab
 
# A B C D E F G H I J K L M N O P Q R S T U V W X Y Z