Escape The Fate - Zombie Dance tab

-------------------------------------------------------------------------------
	            ZOMBIE DANCE INTRO - Escape The Fate
-------------------------------------------------------------------------------
Tabbed by:Samholmes96
Email:Samholmes96@hotmail.co.uk

Tuning: Drop C - CGCFAD

START INTRO*
-----------

D|-----------------|---------------------------------------------------------|
A|-----------------|---------------------------------------------------------|
F|-----------------|---------------------------------------------------------|
C|-----------------|---------------------------------------------------------|
G|---0---00-00-00--|---00-00-00-----X2---------------------------------------|
C|---0---00-00-00--|---00-00-00----------------------------------------------|

MAIN INTRO
-------------------------------------------------------------------------------|
D|-----------------------------|-----------------------------------------------|
A|-----------------------------|-----------------------------------------------|
F|-----------------------------|-----------------------------------------------|
C|---3--0-0--7--0--3-0----3----|--3--0-0--7--0--3--0--2--2--2--0---------------|
G|----------------------1---1-0|-----------------------------------------------|
C|-----------------------------------------------------------------------------|

REPEAT START INTRO X4
THEN...
CHORUS
-------------------------------------------------------------------------------|
D|---------------------|--------------------|----------------------------------|
A|---------------------|--------------------|----------------------------------|
F|---14-14-14-14-------|---15-15-15-15------|---12-12-12-12--------------------|
C|---x--x--x--x----X2--|---x--x--x--x----X2-|---x--x--x--x-------X2------------|
G|---12-12-12-12-------|---13-13-13-13------|---10-10-10-10--------------------|
C|---------------------|--------------------|----------------------------------|

D|----------------|----------------------------------------------------------|
A|----------------|----------------------------------------------------------|
F|---15-15-15-15--|---14-14-14-14--------------------------------------------|
C|---x--x--x--x---|---x--x--x--x---------------------------------------------|
G|---13-13-13-13--|---12-12-12-12--------------------------------------------|
C|----------------|----------------------------------------------------------|

THEN BACK TO MAIN INTRO

Have fun with the tab, this took me 20 minutes to figure out and put to paper, have fun 
all you Escape The Fate fans and Rock on! :)

************************************

| /   slide up
| \   slide down
| h   hammer-on
| p   pull-off
| ~   vibrato
| +   harmonic
| x   Mute note
| b   Bend
| pb  Pre-bend
| br  Bend release
| pbr Pre-bend release
| brb Bend release bend

************************************
Tap to rate this tab
 
# A B C D E F G H I J K L M N O P Q R S T U V W X Y Z