Song name
# A B C D E F G H I J K L M N O P Q R S T U V W X Y Z

Escape The Fate - Lost In Darkness tab

-------------------------------------------------------------------------------
			     LOST IN DARKNESS - Escape The Fate
-------------------------------------------------------------------------------

Tabbed by:Samholmes96
Email:samholmes96@hotmail.co.uk

Tuning: Drop C (CGCFAD)


Main Riff

D|-------------------|-------------------|-----------------------------------|
A|-------------------|-------------------|-----------------------------------|
F|------7~-----------|-----6-7~----------|-----------------------------------|
C|---4---------7-6~--|---4-------7-9-6~--|---------X5------------------------|
G|-------------------|-------------------|-----------------------------------|
C|-------------------|-------------------|-----------------------------------|

Chorus

D|---------|------------------------------|---------|------------------------|
A|---------|------------------------------|---------|------------------------|
F|---------|------------------------------|---------|------------------------|
C|--11-----|---16---14-14-14---19-18------|--11-----|-16-14-13---------------|
G|--9---X6-|---14---12-12-12---17-16--X3--|--9---X6-|-14-12-11---------------|
C|---------|------------------------------|---------|------------------------|

Then back to the Main Riff, X1
Then Chorus, but on the 4th Chorus chunk, end it then add this this...

D|-------|-------------------------------------------------------------------|
A|-------|-------------------------------------------------------------------|
F|-------|-------------------------------------------------------------------|
C|-16----|--18--14-13--------------------------------------------------------|
G|-14-X6-|--16--12-11--------------------------------------------------------|
C|-------|-------------------------------------------------------------------|

Solo

D|---------------------------------------------------------------------------|
A|---------------------------------------------------------------------------|
F|---------6~----------7-----6~-------------6--------9--9b--7-6--------------|
C|--4-6-7-----7-6-4------7-4---------4-6-7----7-6-4--------------------------|
G|---------------------------------------------------------------------------|
C|---------------------------------------------------------------------------|

D|---------------------------------------------------------------------------|
A|---------------------------------------------------------------------------|
F|---9b--9b--7--6--7p6-------------------------------------------------------|
C|--------------------7---4--7--9--9b--9b--7--6--7--6--6--7--6--4~-Let Ring--|
G|---------------------------------------------------------------------------|
C|---------------------------------------------------------------------------|

Then repeat chorus a few times. but at the last note let it ring...


************************************

| /   slide up
| \   slide down
| h   hammer-on
| p   pull-off
| ~   vibrato
| +   harmonic
| x   Mute note
| b   Bend
| pb  Pre-bend
| br  Bend release
| pbr Pre-bend release
| brb Bend release bend

************************************

There you go the 1st guitar tab for, Escape the fate - Lost in darkness 

Enjoy :) Hope this helps, :)
Tap to rate this tab
 
# A B C D E F G H I J K L M N O P Q R S T U V W X Y Z