Song name
# A B C D E F G H I J K L M N O P Q R S T U V W X Y Z

Escape The Fate - Its Just Me tab

tuning: drop C


Intro/Verse

-----------------|  4x
-------/6--------|
-------/7--------|
----------0---0--|
-----------------|
-----------------|

then

--------------------------------------------------------|
----/5---------/5--------------/5----------/5----/8-----|
----/6---------/6--------------/6----------/6----/9-----|
--------7---7------7---7----------7--7--------7-----7---|
--------------------------------------------------------|
--------------------------------------------------------|



Chorus:

--------------------------------------------------------|
--------------------------------------------------------|
--------------14\---14\-12\-10-------12\-------10\-9\-7-|
--------------------------------8---------7-------------|
------------0-12\---12\-10\-8---8----10\---7----8\-7\-5-|
------------0-----0-------------8---------7-------------|

The jist of it
Tap to rate this tab
 
# A B C D E F G H I J K L M N O P Q R S T U V W X Y Z