Song name
# A B C D E F G H I J K L M N O P Q R S T U V W X Y Z

Escape The Fate - Issues tab

-------------------------------------------------------------------------------
			     Issues - Escape the Fate
-------------------------------------------------------------------------------
Tabbed by: Blaise - SPV2006
Email: Saiyan_Prince_Vegeta@hotmail.co.uk

Tuning: Drop C

************************************
# - Divebomb on natural harmonic
* - pinch harmonic
p - Pull off
h - Hammer on
^ - Bend
************************************

These tabs are exactly how Monte plays it, he showed the notes on a guitar world video. 
I watched how it was played and put it into guitar tabs.

The intro is played all down stroke, trying to get a near harmonic sound for the notes.

Contact me if you want any tips on how to play it, or add my email address to Windows 
Live Messenger.

Intro
D-----------------------------------|
A-----------------------------------|
F-----------------------------------|
C----------------7------7-----------|
D-5-5-7-5-8-5-10--8-7-8--8-7-8------|
C-----------------------------------|

D-----------------------------------|
A-----------------------------------|
F-----------------------------------|
C-----------------------------------|
D-5-5-7-5-8-5-10-12-10-8-10-8-7*----|
C-----------------------------------|

Intro
D-----------------------------------|
A-----------------------------------|
F-----------------------------------|
C----------------7------7-----------|
D-5-5-7-5-8-5-10--8-7-8--8-7-8------|
C-----------------------------------|

D-----------------------------------|
A-----------------------------------|
F-----------------------------------|
C-----------------------------------|
D-5-5-7-5-8-5-10-12-10-8-10-10-8-7*-|
C-----------------------------------|

both above x2

Verse riff (all palm muted)

D--------------------------------|
A--------------------------------|
F--------------------------------|
C----------------7------7--------|
D-5-5-7-5-8-5-10--8-7-8--8-7-8---|
C--------------------------------|

D--------------------------------|
A--------------------------------|
F--------------------------------|
C--------------------------------|
D-5-5-7-5-8-5-10-12-10-8-10-8-7*-|
C--------------------------------|

both above x2

D----------------------------------------------------------------|
A----------------------------------------------------------------|
F----------------------------------------------------------------|
C-0-0-2-0-3-0-5-0-2-2-3-2-5-2-7-2-3-3-5-3-7-3-8--8-7-5-7---------|
D--------------------------------------------------------8-7-----|
C----------------------------------------------------------------|
Above x2

Chorus
D----------------------------|
A----------------------------|
F-7x4------------------------|
C-7---7x2-5h7-8x4------------|
D-5---7x2-5h7-8x4------------|
C-----7x2-5h7-8x4--3*-2*-----|
above x4

Verse riff (all palm muted)

D--------------------------------|
A--------------------------------|
F--------------------------------|
C----------------7------7--------|
D-5-5-7-5-8-5-10--8-7-8--8-7-8---|
C--------------------------------|

D--------------------------------|
A--------------------------------|
F--------------------------------|
C--------------------------------|
D-5-5-7-5-8-5-10-12-10-8-10-8-7*-|
C--------------------------------|

both above x2

D----------------------------------------------------------------|
A----------------------------------------------------------------|
F----------------------------------------------------------------|
C-0-0-2-0-3-0-5-0-2-2-3-2-5-2-7-2-3-3-5-3-7-3-8--8-7-5-7---------|
D--------------------------------------------------------8-7-----|
C----------------------------------------------------------------|
Above x2

Chorus
D----------------------------|
A----------------------------|
F-7x4------------------------|
C-7---7x2-5h7-8x4------------|
D-5---7x2-5h7-8x4------------|
C-----7x2-5h7-8x4--3*-2*-----|
above x4

Interlude
D----------------------------|
A----------------------------|
F----------------------------|
C-0-0--3-0-0--0-0--7-0-0-----|
D-0-0--3-0-0--0-0--7-0-0-----|
C-0-0--3-0-0--0-0--7-0-0-----|
x2

Solo (With Wah)
D--------------------------------|
A--------------------------------|
F-7-9#-10--12^13p10--------------|
C-------------------13-10-13^15--|
D--------------------------------|
C--------------------------------|

D-12h15-12h15-12h15-12h15-13h17-13h17-13h17-13h17-----------15-17-18-20-20-20^22-----|
A--------------------------------------------------15-17-18--------------------------|
F------------------------------------------------------------------------------------|
C------------------------------------------------------------------------------------|
D------------------------------------------------------------------------------------|
C------------------------------------------------------------------------------------|

Chorus
D----------------------------|
A----------------------------|
F-7x4------------------------|
C-7---7x2-5h7-8x4------------|
D-5---7x2-5h7-8x4------------|
C-----7x2-5h7-8x4--3*-2*-----|
above x4

Outro
D----------------------------------------|
A----------------------------------------|
F----------------------------------------|
C----------------7------7----------------|
D-5-5-7-5-8-5-10--8-7-8--8-7-8-----------|
C----------------------------------------|

D----------------------------------------|
A----------------------------------------|
F----------------------------------------|
C----------------------------------0-0---|
D-5-5-7-5-8-5-10-12-10-8-10-10-8-7-0-0---|
C----------------------------------0-0---|
Tap to rate this tab
 
# A B C D E F G H I J K L M N O P Q R S T U V W X Y Z