Escape The Fate - Zombie Dance tab

-------------------------------------------------------------------------------
Zombie Dance by Escape the Fate
-------------------------------------------------------------------------------
Tabbed by: laguna418
Email: laguna41811@gmail.com
Tuning: Drop C
Feeling: Kind of a swing beat

This is my very first tab so comment, rate, and please give me feedback!

Intro 

Guitar 2

D|-------12-13-15b-13-12-----------------------13/17-18-20-20b-18-17---------|
A|---/15-----------------15~----------11h13h15-----------------------15~-----|
F|---------------------------12h14h15----------------------------------------|
C|---------------------------------------------------------------------------|
G|---------------------------------------------------------------------------|
C|---------------------------------------------------------------------------|

Verse 1

Guitar 1

D|---|-----------------|
A|---|-----------------|
F|---|-----------------|
C|-0-|-00-00-00--(0)---| x22
G|-0-|-00-00-00--(0)---|
C|-0-|-00-00-00--(0)---|
PM .   .. .. ..   .                

Guitar 2 

D|----------------|--------------------------------------------------------|
A|----------------|--------------------------------------------------------|
F|----------------|--------------------------------------------------------|
C|-0---00--00-00--|-x4---3-0--0-7-0--3-0---3-------3-0--0-7-0--3-0---2-----|x2
G|-0---00--00-00--|----------------------1---1-0-------------------0---0---|
C|-0---00--00-00--|------------------------------------------------------5-|
PM .   ..  .. ..           .  .                      .  .           

D|-----------------|
A|-----------------|
F|-----------------|
C|-0---00--00--00--| x10
G|-0---00--00--00--|
C|-0---00--00--00--|
PM .   ..  ..  ..

Chorus

Guitar 1

D|--------------------------- ------------------------|
A|----------------------------------------------------|
F|----------------------------------------------------|
C|--77777777--88888888--1010101010101010--8888-7777---|
G|--77777777--88888888--1010101010101010--8888-7777---|
C|--77777777--88888888--1010101010101010--8888-7777---|

D|--------------------------------------------------|
A|--------------------------------------------------|
F|--------------------------------------------------|
C|--77777777--88888888--1010101010101010--8888-3333-|
G|--77777777--88888888--1010101010101010--8888-3333-|
C|--77777777--88888888--1010101010101010--8888-3333-|

Guitar 2

D|---------------------------------------------------------------------------|
A|---------------------------------------------------------------------------|
F|-14-14-14-14-14-14-14-14--15-15-15-15-15-15-15-15--17-17-17-17-17-17-17-17-|
C|--x--x--x--x--x--x--x--x---x--x--x--x--x-x--x--x---x--x--x--x--x--x--x--x-|
G|-12-12-12-12-12-12-12-12--13-13-13-13-13-13-13-13--15-15-15-15-15-15-15-15-|
C|---------------------------------------------------------------------------|

D|---------------------------------------------------------------------------|
A|---------------------------------------------------------------------------|
F|-15-15-15-15--14-14-14-14-14-14-14-14-14-14-14-14--15-15-15-15-15-15-15-15-|
C|--x--x--x--x---x--x--x--x--x--x--x--x--x--x--x--x---x--x--x--x--x--x--x--x-|
G|-13-13-13-13--12-12-12-12-12-12-12-12-12-12-12-12--13-13-13-13-13-13-13-13-|
C|---------------------------------------------------------------------------|

D|---------------------------------------------------------------------------|
A|---------------------------------------------------------------------------|
F|-17-17-17-17-17-17-17-17--15-15-15-15--10-10-10-10-------------------------|
C|--x--x--x--x--x--x--x--x---x--x--x--x---x--x--x--x-------------------------|
G|-15-15-15-15-15-15-15-15--13-13-13-13---8--8--8--8-------------------------|
C|---------------------------------------------------------------------------|

Verse 2

Guitar 1

D|---|-----------------|
A|---|-----------------|
F|---|-----------------|
C|-0-|-00-00-00--(0)---| x12
G|-0-|-00-00-00--(0)---|
C|-0-|-00-00-00--(0)---|
PM .   .. .. ..   .                

Guitar 2 

D|------------------------------------------------------|
A|------------------------------------------------------|
F|------------------------------------------------------|
C|----3-0--0-7-0--3-0---3-------3-0--0-7-0--3-0---2-----|x2
G|--------------------1---1-0-------------------0---0---|
C|----------------------------------------------------5-|
PM      .  .                      .  .           

D|-----------------|
A|-----------------|
F|-----------------|
C|-0---00--00--00--| x8
G|-0---00--00--00--|
C|-0---00--00--00--|
PM .   ..  ..  ..

Chorus x2

Guitar 1

D|----------------------------------------------------|  
A|----------------------------------------------------|     
F|----------------------------------------------------|
C|--77777777--88888888--1010101010101010--8888-7777---|
G|--77777777--88888888--1010101010101010--8888-7777---|
C|--77777777--88888888--1010101010101010--8888-7777---|
                                                         
D|--------------------------------------------------|
A|--------------------------------------------------|
F|--------------------------------------------------|
C|--77777777--88888888--1010101010101010--8888-3333-|
G|--77777777--88888888--1010101010101010--8888-3333-|
C|--77777777--88888888--1010101010101010--8888-3333-|

Guitar 2

D|---------------------------------------------------------------------------|
A|---------------------------------------------------------------------------|
F|-14-14-14-14-14-14-14-14--15-15-15-15-15-15-15-15--17-17-17-17-17-17-17-17-|
C|--x--x--x--x--x--x--x--x---x--x--x--x--x-x--x--x---x--x--x--x--x--x--x--x-|
G|-12-12-12-12-12-12-12-12--13-13-13-13-13-13-13-13--15-15-15-15-15-15-15-15-|
C|---------------------------------------------------------------------------|

D|---------------------------------------------------------------------------|
A|---------------------------------------------------------------------------|
F|-15-15-15-15--14-14-14-14-14-14-14-14-14-14-14-14--15-15-15-15-15-15-15-15-|
C|--x--x--x--x---x--x--x--x--x--x--x--x--x--x--x--x---x--x--x--x--x--x--x--x-|
G|-13-13-13-13--12-12-12-12-12-12-12-12-12-12-12-12--13-13-13-13-13-13-13-13-|
C|---------------------------------------------------------------------------|

D|---------------------------------------------------------------------------|
A|---------------------------------------------------------------------------|
F|-17-17-17-17-17-17-17-17--15-15-15-15--10-10-10-10-------------------------|
C|--x--x--x--x--x--x--x--x---x--x--x--x---x--x--x--x-------------------------|
G|-15-15-15-15-15-15-15-15--13-13-13-13---8--8--8--8-------------------------|
C|---------------------------------------------------------------------------|

Breakdown
D|------------------|
A|------------------|
F|------------------|
C|-0--00--00--00----| x4
G|-0--00--00--00----|
C|-0--00--00--00----|
PM .  ..  ..  ..

Solo

Guitar 1

D|----------------------------------------------------|  
A|----------------------------------------------------|     
F|----------------------------------------------------|
C|--77777777--88888888--1010101010101010--8888-7777---|
G|--77777777--88888888--1010101010101010--8888-7777---|
C|--77777777--88888888--1010101010101010--8888-7777---|
                                                         
D|--------------------------------------------------|
A|--------------------------------------------------|
F|--------------------------------------------------|
C|--77777777--88888888--1010101010101010--8888-3333-|
G|--77777777--88888888--1010101010101010--8888-3333-|
C|--77777777--88888888--1010101010101010--8888-3333-|

Guitar 2

D|--10-----10-----10-----------------------------------------------------------|
A|--13b15--13b15--13b15r13-----10~---------------------------------------------|
F|--------------------------12-----------14-15----14-15~-17b19r17-15-14h15p14~-|
C|---------------------------------12-15-------15------------------------------|
G|-----------------------------------------------------------------------------|
C|-----------------------------------------------------------------------------|

D|--------------------17------17--18--17--18--18b20r18--17~-----|
A|--14------14--15--------15------------------------------------|
F|------14------------------------------------------------------|
C|--------------------------------------------------------------|
G|--------------------------------------------------------------|
C|--------------------------------------------------------------|

D|--------------------------------------------|
A|--15--17--15--15h17p15------15--20p15-------|
F|------------------------15--------------15--|
C|--------------------------------------------|
G|--------------------------------------------|
C|--------------------------------------------|

D|--15------17--15--13--------17--17---------18--18---------20--20---------21--21---------|
A|------13--------------15------------20p18----------20p18----------22p20----------22p20--|
F|----------------------------------------------------------------------------------------|
C|----------------------------------------------------------------------------------------|
G|----------------------------------------------------------------------------------------|
C|----------------------------------------------------------------------------------------|

D|--21b|
A|-----|
F|-----|
C|-----|
G|-----|
C|-----|

Final Chorus

Guitar 1 x2

D|----------------------------------------------------|  
A|----------------------------------------------------|     
F|----------------------------------------------------|
C|--77777777--88888888--1010101010101010--8888-7777---|
G|--77777777--88888888--1010101010101010--8888-7777---|
C|--77777777--88888888--1010101010101010--8888-7777---|
                                                         
D|--------------------------------------------------|
A|--------------------------------------------------|
F|--------------------------------------------------|
C|--77777777--88888888--1010101010101010--8888-3333-|
G|--77777777--88888888--1010101010101010--8888-3333-|
C|--77777777--88888888--1010101010101010--8888-3333-|

Guitar 2

D|---------------------------------------------------------------------------|
A|---------------------------------------------------------------------------|
F|-14-14-14-14-14-14-14-14--15-15-15-15-15-15-15-15--17-17-17-17-17-17-17-17-|
C|--x--x--x--x--x--x--x--x---x--x--x--x--x-x--x--x---x--x--x--x--x--x--x--x-|
G|-12-12-12-12-12-12-12-12--13-13-13-13-13-13-13-13--15-15-15-15-15-15-15-15-|
C|---------------------------------------------------------------------------|
D|---------------------------------------------------------------------------|
A|---------------------------------------------------------------------------|
F|-15-15-15-15--14-14-14-14-14-14-14-14-14-14-14-14--15-15-15-15-15-15-15-15-|
C|--x--x--x--x---x--x--x--x--x--x--x--x--x--x--x--x---x--x--x--x--x--x--x--x-|
G|-13-13-13-13--12-12-12-12-12-12-12-12-12-12-12-12--13-13-13-13-13-13-13-13-|
C|---------------------------------------------------------------------------|

D|---------------------------------------------------------------------------|
A|---------------------------------------------------------------------------|
F|-17-17-17-17-17-17-17-17--15-15-15-15--10-10-10-10-------------------------|
C|--x--x--x--x--x--x--x--x---x--x--x--x---x--x--x--x-------------------------|
G|-15-15-15-15-15-15-15-15--13-13-13-13---8--8--8--8-------------------------|
C|---------------------------------------------------------------------------|

D|---------------------------------------------------------------------------|
A|---------------------------------------------------------------------------|
F|-12-------12-------12-------12-------14-------14-------14-------14---------|
C|----15-12----15-12----15-12----15-12----15-12----15-12----15-12----15-12---|
G|---------------------------------------------------------------------------|
C|---------------------------------------------------------------------------|
PM    .  .     .  .     .  .     .  .     .  .     .  .     .  .     .  .

D|---------------------------------------------------------------------------|
A|---------------------------------------------------------------------------|
F|-15-------15-------15-------15-------14-------14-------14-------14---------|
C|----15-12----15-12----15-12----15-12----15-12----15-12----15-12----15-12---|
G|---------------------------------------------------------------------------|
C|---------------------------------------------------------------------------|
PM    .  .     .  .     .  .     .  .     .  .     .  .     .  .     .  .

D|---------------------------------------------------------------------------|
A|---------------------------------------------------------------------------|
F|-12-------12-------12-------12-------14-------14-------14-------14---------|
C|----15-12----15-12----15-12----15-12----15-12----15-12----15-12----15-12---|
G|---------------------------------------------------------------------------|
C|---------------------------------------------------------------------------|
PM    .  .     .  .     .  .     .  .     .  .     .  .     .  .     .  .

D|----------------------------------------------------------------------------|
A|-------------------------------------------------------15-13-12-15-13-12-15b|
F|-15-------15-------15-------15-------17-15-14-17-15-14----------------------|
C|----15-12----15-12----15-12----15-12----------------------------------------|
G|----------------------------------------------------------------------------|
C|----------------------------------------------------------------------------|
PM    .  .     .  .     .  .     .  .     .  .     .  .     .  .     .  .  

Outro 

Guitar 1

D|---------------------------------------------------------------------------|
A|---------------------------------------------------------------------------|
F|---------------------------------------------------------------------------|
C|-0--00-00-00---00-00-00---00-00-00---00------------------------------------|
G|-0--00-00-00---00-00-00---00-00-00---00------------------------------------|
C|-0--00-00-00---00-00-00---00-00-00---00------------------------------------|
PM .  .. .. ..   .. .. ..   .. .. ..   ..

Guitar 2

D|------------------------------------------------------|
A|------------------------------------------------------|
F|------------------------------------------------------|
C|----3-0--0-7-0--3-0---3-------3-0--0-7-0--3-0---------|
G|--------------------1---1-0---------------------------|
C|------------------------------------------------------|
PM      .  .                      .  .           


************************************

| /   slide up
| \   slide down
| h   hammer-on
| p   pull-off
| ~   vibrato
| +   harmonic
| x   Mute note
| b   Bend
| pb  Pre-bend
| br  Bend release
| pbr Pre-bend release
| brb Bend release bend

************************************
Tap to rate this tab
 
# A B C D E F G H I J K L M N O P Q R S T U V W X Y Z