Escape The Fate - Lost In Darkness tab

-------------------------------------------------------------------------------
Lost in Darkness by Escape the Fate
-------------------------------------------------------------------------------
Tabbed by: laguna418
Email:laguna418@gmail.com

Tuning: Drop C

Solo

D|---------9~-10-9-7---10------9~-----------9---------12-12b-10-9~-----------|
A|--7-9-10----------------10-7-------7-9-10---10-9-7-------------------------|
F----------------------------------------------------------------------------|
C|---------------------------------------------------------------------------|
G|---------------------------------------------------------------------------|
C|---------------------------------------------------------------------------|

D|---12b-12b-10-9-9-10p9-----------------------------------------------------|
A|-----------------------10~-7-10-12-12b-12b-10p7-9-12-9~--------------------|
F|---------------------------------------------------------------------------|
C|---------------------------------------------------------------------------|
G|---------------------------------------------------------------------------|
C|---------------------------------------------------------------------------|




************************************

| /   slide up
| \   slide down
| h   hammer-on
| p   pull-off
| ~   vibrato
| +   harmonic
| x   Mute note
| b   Bend
| pb  Pre-bend
| br  Bend release
| pbr Pre-bend release
| brb Bend release bend

************************************
Tap to rate this tab
 
# A B C D E F G H I J K L M N O P Q R S T U V W X Y Z