Escape The Fate - The Final Blow tab

The Final Blow (intro only) by Escape The Fate

Drop C Tuning

D--------------------------------------------------------------------------|
A--------------------------------------------------------------------------|
F--------------------------------------------------------------------------|
C--------------------------------------------------------------------------|
G-8-5---------5-8--8-7-3-7-3--0-0000--0-3-7--7-5-3--8-5---------5-8--8-7-3-|
C----0-0000--0-----------------------------------------8-8888--8-----------|
     . ....  .                . ....  .                . ....  .

D---------------------------------|
A---------------------------------|
F---------------------------------|
C-3-----3-----7---5---------------|
G-----------------------7-----5h7-|
C---333---333---3---333---333-----|
    ...   ...   .   ...   ...
Tap to rate this tab
 
# A B C D E F G H I J K L M N O P Q R S T U V W X Y Z