Escape The Fate - Issues tab

Issues by Escape the Fate (INTRO)
DROP C TUNING
tabbed by Electrarookie

D------------------------------|
A------------------------------|
F-----------------2-----2------|
C-0-0-2P0-3P0-5P0--3-2-3-3-2-0-|
G------------------------------|
C------------------------------|

D-----------------------------|
A-----------------------------|
F-----------------2-----------|
C-0-0-2P0-3P0-5P0--5-3--5-3-2-|
G-----------------------------|
C-----------------------------|

D------------------------------|
A------------------------------|
F-----------------2-----2------|
C-0-0-2P0-3P0-5P0--3-2-3-3-2-0-|
G------------------------------|
C------------------------------|

D------------------------------|
A------------------------------|
F-----------------2------------|
C-0-0-2P0-3P0-5P0--5-3-5-3-2-0-|
G------------------------------|
C------------------------------|

D------------------------------|
A------------------------------|
F-----------------2-----2------|
C---0-2P0-3P0-5P0--3-2-3-3-2-0-|
G------------------------------|
C-0----------------------------|

D-----------------------------|
A-----------------------------|
F-----------------2-----------|
C---0-2P0-3P0-5P0--5-3--5-3-2-|
G-----------------------------|
C-0---------------------------|

D------------------------------|
A------------------------------|
F-----------------2-----2------|
C---0-2P0-3P0-5P0--3-2-3-3-2-0-|
G------------------------------|
C-0----------------------------|

D------------------------------|
A------------------------------|
F-----------------2------------|
C---0-2P0-3P0-5P0--5-3-5-3-2-0-|
G------------------------------|
C-0----------------------------|
Tap to rate this tab
 
# A B C D E F G H I J K L M N O P Q R S T U V W X Y Z