Escape The Fate - Issues tab

Issues
Escape The Fate
Tabbed by: Tommy Colbert
Email: Iamtommycobert@aol.com


There were a lot of tabs that came close to sounding right but none of them were right. 
This one sounds perfect to me. Saw an interview with bryan and figured it out from that.

Intro:
d|------------------------------------------------------------------------|
A|------------------------------------------------------------------------|
F|------------------------------------------------------------------------|
C|----------------------7-------7-----------------------------------------|
G|----5--7p5-8p5-10p5----8-7-8---8-7-5-----5--7p5-8p5-10p5-12-10-8-10-8-7-|
C|-0------------------------------------0---------------------------------|
   .                                    .                               x4

Verse:
d|------------------------------------------------------------------------|
A|------------------------------------------------------------------------|
F|------------------------------------------------------------------------|
C|----------------------7-------7-----------------------------------------|
G|----5--7p5-8p5-10p5----8-7-8---8-7-5-----5--7p5-8p5-10p5-12-10-8-10-8-7-|
C|-0------------------------------------0---------------------------------|
   .  .  . . . .  . .   .. . .  .. . .  .  .  . . . .  . . .   . .  . . .x2

This part is hard to tell the difference from the other part but trust me on this.

d|-----------------------------------------------------------------|
A|-----------------------------------------------------------------|
F|-----------------------------------------------------------------|
C|--0-2p0-3p2-5p2---2-3p2-5p2-7p2---3-5p3-7p3-8p3-8-7-5-7-8-7-5*---|
G|-----------------------------------------------------------------|
C|-0--------------2---------------3--------------------------------|

   .  . . . . . . . . . . . . . . . . . . . . . . . . . . . .     x2


Chorus:
d|----------------------------------------------------------------------|
A|----------------------------------------------------------------------|
F|-14-14141414141414\12-12121212121212\10-101010101010101010101010\9999-|
C|-x--x-x-x-x-x-x-x-\x--x-x-x-x-x-x-x-\x--x-x-x-x-x-x-x-x-x-x-x-x\\xxxx-|
G|-12-12121212121212\10-10101010101010\8--8-8-8-8-8-8-8-8-8-8-8-8\\7777-|
C|----------------------------------------------------------------------|
                                                                       x4

Verse:
d|------------------------------------------------------------------------|
A|------------------------------------------------------------------------|
F|------------------------------------------------------------------------|
C|----------------------7-------7-----------------------------------------|
G|----5--7p5-8p5-10p5----8-7-8---8-7-5-----5--7p5-8p5-10p5-12-10-8-10-8-7-|
C|-0------------------------------------0---------------------------------|
   .                                    .

d|------------------------------------------------------------------------|
A|------------------------------------------------------------------------|
F|------------------------------------------------------------------------|
C|----------------------7-------7-----------------------------------------|
G|----5--7p5-8p5-10p5----8-7-8---8-7-5-----5--7p5-8p5-10p5-12-10-8-10-8-7-|
C|-0------------------------------------0---------------------------------|
   .  .  . . . .  . .   .. . .  .. . .  .  .  . . . .  . . .   . .  . . .x2


d|-----------------------------------------------------------------|
A|-----------------------------------------------------------------|
F|-----------------------------------------------------------------|
C|--0-2p0-3p2-5p2---2-3p2-5p2-7p2---3-5p3-7p3-8p3-8-7-5-7-8-7-5*---|
G|-----------------------------------------------------------------|
C|-0--------------2---------------3--------------------------------|

   .. . . . . . . . . . . . . . . . . . . . . . . . . . . . .     x2

Chorus:
d|----------------------------------------------------------------------|
A|----------------------------------------------------------------------|
F|-14-14141414141414\12-12121212121212\10-101010101010101010101010\9999-|
C|-x--x-x-x-x-x-x-x-\x--x-x-x-x-x-x-x-\x--x-x-x-x-x-x-x-x-x-x-x-x\\xxxx-|
G|-12-12121212121212\10-10101010101010\8--8-8-8-8-8-8-8-8-8-8-8-8\\7777-|
C|----------------------------------------------------------------------|
                                                                       x4

Pre-solo(i guess?) use the whammy bar in rhythm with how the song is
d|-------------------------------------|
A|-------------------------------------|
F|-------------------------------------|
C|-------------------------------------|
G|-------------------------------------|
C|-0----------0---------0----------0---|


Solo:
You hold down the whammy bar and then put your finger on the fret and then bring the 
whammy bar back up for the first 3 notes.
d|-------------------12b-10-----------12h15-12h15-12h15-12h15-13h17-13h17-|
A|--------------------------13-10-13b-------------------------------------|
F|-7----9+-----10---------------------------------------------------------|
C|------------------------------------------------------------------------|
G|------------------------------------------------------------------------|
C|------------------------------------------------------------------------|

d|-13h17-13h17-13h17-----------17h18h20-20-20-20b-|
A|--------------------17h18h20--------------------|
F|------------------------------------------------|
C|------------------------------------------------|
G|------------------------------------------------|
C|------------------------------------------------|

Then do the chorus again a few times and theres a couple palm mutes at the end i think 
but those are just open on the top three strings(correctme if im wrong)




| . Palm Mute
| * Pinch harmonic
| p Pull off
| h Hammer on
| + Natural harmonic
| b Bend
Tap to rate this tab
 
# A B C D E F G H I J K L M N O P Q R S T U V W X Y Z