Escape The Fate - Issues tab

Drop C tuning

Please rate and comment.




INTRO
D|---------------------------------------------------------------------|
A|---------------------------------------------------------------------|
F|---------------------------------------------------------------------|
C|------------------7-------7------------------------------------------|
G|----7p5-8p5-10p5----8-7-8---8-7\5------------------------------------|
C|-00------------------------------------------------------------------|
   ..

D|---------------------------------------------------------------------|
A|---------------------------------------------------------------------|
F|---------------------------------------------------------------------|
C|------------------7-5---7--------------------------------------------|
G|----7p5-8p5-10p5------8---8-7----------------------------------------|
C|-00------------------------------------------------------------------|
   ..                         *

D|---------------------------------------------------------------------|
A|---------------------------------------------------------------------|
F|---------------------------------------------------------------------|
C|------------------7-------7------------------------------------------|
G|----7p5-8p5-10p5----8-7-8---8-7\5------------------------------------|
C|-00------------------------------------------------------------------|
   ..

D|---------------------------------------------------------------------|
A|---------------------------------------------------------------------|
F|------------------------------5--------------------------------------|
C|------------------7-5---7-----5--------------------------------------|
G|----7p5-8p5-10p5------8---8-7----------------------------------------|
C|-00------------------------------------------------------------------|
   ..               . . . . . . ^

D|---------------------------------------------------------------------|
A|---------------------------------------------------------------------|
F|---------------------------------------------------------------------|
C|------------------7-------7------------------------------------------|
G|----7p5-8p5-10p5----8-7-8---8-7\5------------------------------------|
C|-00------------------------------------------------------------------|
   ..

D|---------------------------------------------------------------------|
A|---------------------------------------------------------------------|
F|---------------------------------------------------------------------|
C|------------------7-5---7--------------------------------------------|
G|----7p5-8p5-10p5------8---8-7----------------------------------------|
C|-00------------------------------------------------------------------|
   ..                         *

D|---------------------------------------------------------------------|
A|---------------------------------------------------------------------|
F|---------------------------------------------------------------------|
C|------------------7-------7------------------------------------------|
G|----7p5-8p5-10p5----8-7-8---8-7\5------------------------------------|
C|-00------------------------------------------------------------------|
   ..

D|---------------------------------------------------------------------|
A|---------------------------------------------------------------------|
F|---------------------------------------------------------------------|
C|------------------7-5---7--------------------------------------------|
G|----7p5-8p5-10p5------8---8-7-7--------------------------------------|
C|-00------------------------------------------------------------------|
   ..               . . . . . . *






VERSE
D|---------------------------------------------------------------------|
A|---------------------------------------------------------------------|
F|---------------------------------------------------------------------|
C|------------------7-------7------------------------------------------|
G|----7-5-8-5-10-5----8-7-8---8-7-5------------------------------------|
C|-00------------------------------------------------------------------|
   .. . . . . .  .  . . . . . . . .


D|---------------------------------------------------------------------|
A|---------------------------------------------------------------------|
F|---------------------------------------------------------------------|
C|------------------7-5---7--------------------------------------------|
G|----7-5-8-5-10-5------8---8-7----------------------------------------|
C|-00------------------------------------------------------------------|
   .. . . . . .  .  . . . . . *


D|---------------------------------------------------------------------|
A|---------------------------------------------------------------------|
F|---------------------------------------------------------------------|
C|------------------7-------7------------------------------------------|
G|----7-5-8-5-10-5----8-7-8---8-7-5------------------------------------|
C|-00------------------------------------------------------------------|
   .. . . . . .  .  . . . . . . . .


D|---------------------------------------------------------------------|
A|---------------------------------------------------------------------|
F|---------------------------------------------------------------------|
C|------------------7-5---7--------------------------------------------|
G|----7-5-8-5-10-5------8---8-7----------------------------------------|
C|-00------------------------------------------------------------------|
   .. . . . . .  .  . . . . . *


D|---------------------------------------------------------------------|
A|---------------------------------------------------------------------|
F|---------------------------------------------------------------------|
C|----2-0-3-0-5-0----3-2-4-2-6-2----4-3-5-3-7-3---7-5---7--------------|
G|----------------------------------------------------8---8-7----------|
C|-00-------------22-------------33------------------------------------|
   .. . . . . . . .. . . . . . . .. . . . . . .   . . . . . *


D|---------------------------------------------------------------------|
A|---------------------------------------------------------------------|
F|---------------------------------------------------------------------|
C|----2-0-3-0-5-0----3-2-4-2-6-2----4-3-5-3-7-3---7-5---7--------------|
G|----------------------------------------------------8---8-7----------|
C|-00-------------22-------------33------------------------------------|
   .. . . . . . . .. . . . . . . .. . . . . . .





   
CHORUS
D|---------------------------------------------------------------------|
A|---------------------------------------------------------------------|
F|-77777777------------------------------------------------------------|
C|-77777777-77777777-5h7-8888888---------------------------------------|
G|-55555555-77777777-5h7-8888888---------------------------------------|
C|----------77777777-5h7-8888888-333-222-------------------------------|x4
                                   *   *







PRE VERSE
D|---------------------------------------------------------------------|
A|---------------------------------------------------------------------|
F|---------------------------------------------------------------------|
C|------------------7-------7------------------------------------------|
G|----7p5-8p5-10p5----8-7-8---8-7\5------------------------------------|
C|-00------------------------------------------------------------------|
   ..

D|---------------------------------------------------------------------|
A|---------------------------------------------------------------------|
F|---------------------------------------------------------------------|
C|------------------7-5---7--------------------------------------------|
G|----7p5-8p5-10p5------8---8-7-7--------------------------------------|
C|-00------------------------------------------------------------------|
   ..               . . . . . . *








VERSE
D|---------------------------------------------------------------------|
A|---------------------------------------------------------------------|
F|---------------------------------------------------------------------|
C|------------------7-------7------------------------------------------|
G|----7-5-8-5-10-5----8-7-8---8-7-5------------------------------------|
C|-00------------------------------------------------------------------|
   .. . . . . .  .  . . . . . . . .


D|---------------------------------------------------------------------|
A|---------------------------------------------------------------------|
F|---------------------------------------------------------------------|
C|------------------7-5---7--------------------------------------------|
G|----7-5-8-5-10-5------8---8-7----------------------------------------|
C|-00------------------------------------------------------------------|
   .. . . . . .  .  . . . . . *


D|---------------------------------------------------------------------|
A|---------------------------------------------------------------------|
F|---------------------------------------------------------------------|
C|------------------7-------7------------------------------------------|
G|----7-5-8-5-10-5----8-7-8---8-7-5------------------------------------|
C|-00------------------------------------------------------------------|
   .. . . . . .  .  . . . . . . . .


D|---------------------------------------------------------------------|
A|---------------------------------------------------------------------|
F|---------------------------------------------------------------------|
C|------------------7-5---7--------------------------------------------|
G|----7-5-8-5-10-5------8---8-7----------------------------------------|
C|-00------------------------------------------------------------------|
   .. . . . . .  .  . . . . . *


D|---------------------------------------------------------------------|
A|---------------------------------------------------------------------|
F|---------------------------------------------------------------------|
C|----2-0-3-0-5-0----3-2-4-2-6-2----4-3-5-3-7-3---7-5---7--------------|
G|----------------------------------------------------8---8-7----------|
C|-00-------------22-------------33------------------------------------|
   .. . . . . . . .. . . . . . . .. . . . . . .   . . . . . *


D|---------------------------------------------------------------------|
A|---------------------------------------------------------------------|
F|--------------------------------5~~----------------------------------|
C|----2-0-3-0-5-0----3-2-4-2-6-2--5~~----------------------------------|
G|---------------------------------------------------------------------|
C|-00-------------22------------------0000000--------------------------|
   .. . . . . . . .. . . . . . .  ^   .......





CHORUS
D|---------------------------------------------------------------------|
A|---------------------------------------------------------------------|
F|-77777777------------------------------------------------------------|
C|-77777777-77777777-5h7-8888888---------------------------------------|
G|-55555555-77777777-5h7-8888888---------------------------------------|
C|----------77777777-5h7-8888888-333-222-------------------------------|x4
                                   *   *


BREAKDOWN

Use the whammy bar and the low C string!




SOLO
D|----------------12b14r12-----------11--------------------------------|
A|-3---5---6---------------11h12h13--13b15-----------------------------|
F|-5b7-7b9-8b10--------------------------------------------------------|
C|---------------------------------------------------------------------|
G|---------------------------------------------------------------------|
C|---------------------------------------------------------------------|


D|-t15p12(x8)-t17p13(x8)----------17h18h20-20-20-20b22-----------------|
A|-----------------------17h18h20--------------------------------------|
F|---------------------------------------------------------------------|
C|---------------------------------------------------------------------|
G|---------------------------------------------------------------------|
C|---------------------------------------------------------------------|
                                   
                                     


CHORUS
D|---------------------------------------------------------------------|
A|---------------------------------------------------------------------|
F|-77777777------------------------------------------------------------|
C|-77777777-77777777-5h7-8888888---------------------------------------|
G|-55555555-77777777-5h7-8888888---------------------------------------|
C|----------77777777-5h7-8888888-333-222-------------------------------|x5
                                   *   *

D|---------------------------------------------------------------------|
A|---------------------------------------------------------------------|
F|-77777777------------------------------------------------------------|
C|-77777777-77777777-5h7-8888888-7-5---5-------------------------------|
G|-55555555-77777777-5h7-8888888-----8---8-7-0~~-----------------------|
C|----------77777777-5h7-8888888-----------------00--------------------|
                                 . . . . . .     ..


************************************

| . Palm Mute
| * Pinch Harmonic
| ^ Natural Harmonic
| b Bend
| r release
| \ Slide down
| ~ Let ring
| h Hammer-on
| p Pull-off

************************************
Tap to rate this tab
 
# A B C D E F G H I J K L M N O P Q R S T U V W X Y Z