Song name
# A B C D E F G H I J K L M N O P Q R S T U V W X Y Z

Escape The Fate - Situations tab

-------------------------------------------------------------------------------
			     "Situations" - Escape The Fate
-------------------------------------------------------------------------------
Tabbed by:squierking1124
Email:c.sidebottom@yahoo.com

Tuning:drop-D(guitar)

e|------------|-----------------------|-----------------|----------------------|
B|------------|-----------------------|-----------------|----------------------|
G|------------|-----------------------|-----------------|----------------------|
D|-7-7--------|-6-6-------------x-6---|-3-3-------------|-2-2-----------6------|
A|-5-5--------|-4-4-------------x-4---|-1-1-------------|-0-0-----------4------|
E|------------|-----------------------|-----------------|----------------------|

e|---------------------------------------------|-------------------------------|
B|---------------------------------------------|-------------------------------|
G|---------------------------------------------|-------------------------------|
D|---------------------------------------------|-------------------------------|
A|-8-8-8-8---8-8-8-8---10-10-10-10---8-8-8-8---|-7-7-7-7---7-7-7-7-------------|
E|---------------------------------------------|-------------------------------|
                                   *
e|--------------------------------------------------|--------------------------|
B|--------------------------------------------------|--------------------------|
G|--------------------------------------------------|--------------------------|
D|------------7-7-7-7--------------/------/------/--|-----------/------/-------|
A|-8-8-8-8------------------------------------------|-4-4-4-4------------------|
E|-----------------------5-5-5-5--------------------|--------------------------|
                                   * repeat prev. beat
e|-------------|-----------------------------------------------|---------------|
B|-------------|-----------------------------------------------|---------------|
G|-------------|-----------------------------------------------|---------------|
D|-------------|----------------------------8-8-8-8---7-7-7-7--|---------------|
A|-0-0-0-0-----|-10-10-10-10---10-10-8-8-----------------------|-10-10-10-10---|
E|-------------|-----------------------------------------------|---------------|

e|----------------------------------------------------------|------------------|
B|----------------------------------------------------------|------------------|
G|----------------------------------------------------------|------------------|
D|-7-7-7-7---------------------------------/------/------/--|------------------|
A|-----------8-8-8-8---7-7-7-7---1-1-1-1--------------------|-0-0-0-0----------|
E|----------------------------------------------------------|------------------|

e|------------------------------|-------------------------|--------------------|
B|------------------------------|-------------------------|--------------------|
G|------------------------------|-7-7---9-9---10-10---9-9-|-------%------------|
D|------------------------------|-------------------------|--------------------|
A|-0-0-0-0---4-4-4-4---4-4-4-4--|-------------------------|--------------------|
E|------------------------------|-------------------------|--------------------|

e|------------|--------------------------|-------------------------------------|
B|------------|--------------------------|-------------------------------------|
G|-----%------|--------------------------|-------------------------------------|
D|------------|----------/------/------/-|----------/------/-------------------|
A|------------|-5-5-5-5------------------|-4-4-4-4---------------0-0-0-0-------|
E|------------|--------------------------|-------------------------------------|

e|---------------------------------------|-------------------------------------|
B|---------------------------------------|-------------------------------------|
G|---------------------------------------|-----7-7-------9-9---10-10-10-10-----|
D|---------------------------------------|-------------------------------------|
A|-1-1-1-1---1-1-1-1---1-1-1-1---1-1-1-1-|-0-0-0-0---0-0-0-0---4--4--4--4------|
E|---------------------------------------|-------------------------------------|


E|---------|--------------------------|----------------------------------------|
B|---------|--------------------------|----------------------------------------|
G|-9-9-9-9-|--------------------------|-------10-10-10-10-10-10-10-9-9-9-9-9---|
D|---------|----------------/---/---/-|-------7--7--7--7--7--7--7--7-7-7-7-7---|
A|-4-4-0---|-5-5---5-5-5-5------------|-7-7---7--7--7--7--7--7--7--7-7-7-7-7---|
E|---------|-5-5---5-5-5-5------------|-7-7---7--7--7--7--7--7--7--7-7-7-7-7---|

e|----------------------------|------------------------------------------------|
B|-10-10-10-10----------------|------------------------------------------------|
G|-10-10-10-10----------------|------------------------------------------------|
D|-8--8--8--8--/-------/---/--|------------------------------------------------|
A|-8--8--8--8-----------------|-10-10-10-10--10-10-10-10--10-10--11-11---------|
E|-8--8--8--8-----------------|-10-10-10-10--10-10-10-10--10-10--11-11---------|

e|----------------------------------------------------|------------------------|
B|----------------------------------------------------|------------------------|
G|-10-10-10-10--10-10-10-10--12-12-12-12--10-10-10-10-|-9-9-9-9--9-9-9-9-------|
D|-x--x--x--x---x--x--x--x---x--x--x--x---x--x--x--x--|-x-x-x-x--x-x-x-x-------|
A|-8--8--8--8---8--8--8--8---10-10-10-10--8--8--8--8--|-7-7-7-7--7-7-7-7-------|
E|----------------------------------------------------|------------------------|

e|----------------------|------------------------|-----------------------------|
B|----------------------|------------------------|-----------------------------|
G|-10-10-10-10--6-6-6-6-|----------/----/----/---|----------/----/-------------|
D|-x--x--x--x---x-x-x-x-|-7-7-7-7----------------|-6-6-6-6---------------------|
A|-8--8--8--8---4-4-4-4-|-5-5-5-5----------------|-4-4-4-4----------0-0-0-0----|
E|----------------------|------------------------|-----------------------------|

e|----------------------------------------------------|--------------------------|
B|----------------------------------------------------|--------------------------|
G|-12-12-12-12--12-10-10-10--15-15-15-15--14-14-14-14-|-12-12-12-12--14-14-14-14-|
D|-x--x--x--x---x--x--x--x---x--x--x--x---x--x--x--x--|-x--x--x--x---x--x--x--x--|
A|-10-10-10-10--10-8--8--8---13-13-13-13--12-12-12-12-|-10-10-10-10--12-12-12-12-|
E|----------------------------------------------------|--------------------------|

e|----------------------|----------------------|-------------------------------|
B|----------------------|----------------------|-------------------------------|
G|-10-10-10-10--9-9-9-9-|----------/----/----/-|-------------------------------|
D|-x--x--x--x---x-x-x-x-|-3-3-3-3--------------|-2-2-2-2--2-2-2-2--6-6-6-6-----|
A|-8--8--8--8---7-7-7-7-|-1-1-1-1--------------|-0-0-0-0--0-0-0-0--4-4-4-4-----|
E|----------------------|----------------------|-------------------------------|

e|---------|-------------|------------------------------------|-5-5-5-5--------|
B|---------|-------------|------------------11-11-11-11-------|-8-8-8-8--------|
G|---------|--10-7-9-6---|-------------/----10-10-10-10--/----|-7-7-7-7-/--/-/-|
D|-6-6-6-6-|-------------|------------------8--8--8--8--------|-5-5-5-5--------|
A|-4-4-4-4-|---8-5-7-4-0-|-10-10-10-10------8--8--8--8--------|-5-5-5-5--------|
E|---------|-------------|-8--8--8--8-------8--8--8--8--------|-5-5-5-5--------|

e|--------------0-0--0-0-0-0---------|-----------------------------------------|
B|--------------5-5--5-5-5-5---------|-----------------------------------------|
G|--------------7-7--7-7-7-7--/------|-----------------------------------------|
D|-0-0-0-0--0-0-0-0--0-0-0-0---------|-----------------------------------------|
A|-0-0-0-0--0-0-0-0--0-0-0-0---------|-7-7-7-7--7-7-7-7--7-7-7-7--7-7-7-7------|
E|-0-0-0-0--0-0-0-0--0-0-0-0---------|-7-7-7-7--7-7-7-7--7-7-7-7--7-7-7-7------|

e|--------------------|-------------------|-------------------|----|-----------|
B|--------------------|-------------------|-------------------|----|-----------|
G|---------/---/---/--|---------/---/---/-|-------------------|----|-----------|
D|-3-3-3-3------------|-2-2-2-2-----------|---------/---/---/-|--4-|-4---------|
A|-5-5-5-5------------|-4-4-4-4-----------|-5-5-5-5-----------|--7-|-7---------|
E|--------------------|-------------------|-8-8-8-8-----------|----|-----------|

e|---------13-16-17-13-----------------13-16-17-13-----------------------------|
B|-------15-----------15-------------15-----------15---------------------------|
G|-----14---------------14---------14---------------14-------------------------|
D|---15-------------------15-----15-------------------15-----------------------|
A|-17-----------------------17-17-----------------------17---------------------|
E|-----------------------------------------------------------------------------|

e|--------------13-------------------------13-------------|---------------------|
B|-------1415-17--17-15-14----------1415-17--17-15-14-----|---------------------|
G|-----14-----------------14------14-----------------14---|-repeat-previous-bars|
D|---14---------------------14--14---------------------14-|---------------------|
A|-16-------------------------16--------------------------|---------------------|
E|--------------------------------------------------------|---------------------|

e|-20---17---18---12------|-13-----13--|-----------------|-------|--------------|
B|-22---18---20---14---10-|-15-----15--|-----------------|-------|--------------|
G|------------------------|------------|-10---7---9---6--|-------|--------------|
D|------------------------|------------|-----------------|-------|--------------|
A|------------------------|------------|-8----5---7---4--|-0-----|-0------------|
E|------------------------|------------|-----------------|-0-----|-0------x-----|

************************************
| *   repeat previous beat
| >   slide up
| \   slide down
| h   hammer-on
| p   pull-off
| ~   vibrato
| +   harmonic
| x   Mute note
| b   Bend
| pb  Pre-bend
| br  Bend release
| pbr Pre-bend release
| brb Bend release bend

************************************
Tap to rate this tab
 
# A B C D E F G H I J K L M N O P Q R S T U V W X Y Z