Escape The Fate - Gorgeous Nightmare tab

Artist:	Escape the Fate					Tabbed by: Josey Stines
Song:	Gorgeous Nightmare
Album:	Escape the Fate
Year:	2010
Tuning:	Drop c
______________________________________________________________________________
Gtr. 1 Lead Guitar
Gtr. 2 Rhythm Guitar     (When Added)
Gtr. 3 Additional Guitar (When Added)
Otherwise it's the same for them all.
______________________________________________________________________________
Gtr. 1
0:00
D ----------------------------------|
A ----------------------------------|
F -------------------------0--------|
C ---3-0---3-0-----X-X---3-----2b---|  X4
G ---------------5-X-X-1-----0------|
C -------0-----0---X-X--------------|
                *
0:14
D ---------------------------------------|
A ---------------------------------------|
F ---10-----10-----7---X-3-3-3-3-2-2-2---|
C ---10-0-0-10-0-0-7-0-X-3-3-3-3-2-2-2---|  x4
G ---8--0-0-8--0-0-5-0-X-1-1-1-1-0-0-0---|
C ------0-0----0-0---0-------------------|

0:42
D -------------------|
A -------------------|
F -------------------|
C -------------------|  x4
G -------------------|
C ---3-0-0-3-0-0-0---|

0:56
D ------------------------------------------------------------------|
A ------------------------------------------------------------------|
F ------------------------------5-----------------------------------|
C ---8--------7--------0--------5--(x8)--8--------5--------7--------|
G ---8--(x8)--7--(x8)--0--(x8)--3--------8--(x8)--5--(x8)--7--(x16)-|
C ---8--------7--------0-----------------8--------5--------7--------|

1:11
D -----------------------------------|
A -----------------------------------|
F -----------------------------------|
C ---3-----3-------------------------| x2
G ---3-0-0-3-0-0-0-0--0-0-0--0-0-0---|
C ---3-0-0-3-0-0-0-0--0-0-0--0-0-0---|
        * *   * * * *  * * *  * * *
Gtr. 2
1:17
D ---------------|
A ---15--(x16)---|
F ---------------|
C ---------------| x15
G ---------------|
C ---------------|
      *
Gtr. 1
1:32
D -------------------|
A -------------------|
F -------------------|
C -------------------|  x4
G -------------------|
C ---3-0-0-3-0-0-0---|

Gtr. 1
1:46
D ------------------------------------------------------------------|
A ------------------------------------------------------------------|
F ------------------------------5-----------------------------------|
C ---8--------7--------0--------5--(x8)--8--------5--------7--------|
G ---8--(x8)--7--(x8)--0--(x8)--3--------8--(x8)--5--(x8)--7--(x16)-|
C ---8--------7--------0-----------------8--------5--------7--------|

2:00
D -----------------------------------|
A -----------------------------------|
F -----------------------------------|
C ---3-----3-------------------------| x2
G ---3-0-0-3-0-0-0-0--0-0-0--0-0-0---|
C ---3-0-0-3-0-0-0-0--0-0-0--0-0-0---|
        * *   * * * *  * * *  * * *
Gtr. 1
2:07
D ------------------------------------------17b--17b--15----15--17b--15----15---|
A -------------17b--15-----18------18b--17b--------------18-------------18------|
F ---14b--17b----------17b----17b--17b------------------------------------------|
C -----------------------------------------------Gtr. 3 Harmonizes Here---------|
G ------------------------------------------------------------------------------|
C ------------------------------------------------------------------------------|

D ---12-15-12-------------12-15-12----------15-18-15---------|
A ------------14-11-11-11----------14-11-11----------17-17---|
F -----------------------------------------------------------|
C -----------------------------------------------------------|
G -----------------------------------------------------------|
C -----------------------------------------------------------|

D ---18-21-18-------------18-21-18-------------21-24-21-------|
A ------------20-17-17-17----------20-17-17-17----------23-23-|
F ------------------------------------------------------------|
C ------------------------------------------------------------|
G ------------------------------------------------------------|
C ------------------------------------------------------------|
Gtr. 2
2:07
D ------------------------------------------------------------------|
A ------------------------------------------------------------------|
F ------------------------------5-----------------------------------|
C ---8--------7--------0--------5--(x8)--8--------5--------7--------|
G ---8--(x8)--7--(x8)--0--(x8)--3--------8--(x8)--5--(x8)--7--(x16)-|
C ---8--------7--------0-----------------8--------5--------7--------|
Gtr. 3
2:07
D --------------------------------------------------------|
A --------------------------------------------------------|
F ---------------------------14b--12----12--14b--12----12-|
C -------------14b--12---------------15-------------15----|
G ---12b--15b----------------Gtr. 1 Harmonizes Here-------|
C --------------------------------------------------------|

D --------------------------------------------------------------|
A --------------------------------------------------------------|
F ---------------------------------------------12-15-12---------|
C ---14-17-14-------------14-17-14----------------------14-14---|
G ------------16-13-13-13----------16-13-13-13------------------|
C --------------------------------------------------------------|
                  *  *  *              *  *  *
D ------------------------------------------------------------10b---|
A ---------------------------------------------14-17-14-------13b---|
F ---15-18-15-------------15-18-15----------------------15-15-------|
C ------------17-14-14-14----------17-14-14-14----------------------|
G ------------------------------------------------------------------|
C ------------------------------------------------------------------|
                  *  *  *              *  *  *

Gtr. 1
2:22
D ----------------------------------------------------|
A ----------------------------------------------------|
F -------------------------0--------------------------|
C ---3-0---3-0-----X-X---3-----2b---3-0---3-0-----X---|
G ---------------5-X-X-1-----0------------------5-X---|
C -------0-----0---X-X------------------0-----0---X---|
Gtr.3           *                              *
2:22
D ---REST---REST---REST---REST---------10h13b--13-12p10-10~---|
A ---REST---REST---REST---REST--------------------------------|
F ---REST---REST---REST---REST--------------------------------|
C ---REST---REST---REST---REST--------------------------------|
G ---REST---REST---REST---REST--------------------------------|
C ---REST---REST---REST---REST------0b------------------------|

Gtr. 1
2:29
D ------------------------------------------------------------------------|
A ------------------------------------------------------------------------|
F ------------------------------5-----------------------------------------|
C ---8--------7--------0--------5--(x8)--8--------5--------7--------------|
G ---8--(x8)--7--(x8)--0--(x8)--3--------8--(x8)--5--(x8)--7--(x8)--------|
C ---8--------7--------0-----------------8--------5--------7--------19~---|
Gtr. 2
2:29
D ------------------------------------------------------------------|
A ------------------------------------------------------------------|
F ------------------------------5-----------------------------------|
C ---8--------7--------0--------5--(x8)--8--------5--------7--------|
G ---8--(x8)--7--(x8)--0--(x8)--3--------8--(x8)--5--(x8)--7--(x16)-|
C ---8--------7--------0-----------------8--------5--------7--------|

Gtr. 1
2:44
D ------13-13b--12-13-10~--15b-15b--------------13b--13-12b---------------------|
A ---11----------------------------18-17-18--11-------------10t(x16)-13t(x16)---|
F ------------------------------------------------------------------------------|
C ------------------------------------------------------------------------------|
G ------------------------------------------------------------------------------|
C ------------------------------------------------------------------------------|
Gtr. 2
2:44
D --------------------------------------------------------------------|
A --------------------------------------------------------------------|
F ------------------------------5-------------------------------------|
C ---8--------7--------0--------5--(x8)--8--------5--------7----------|
G ---8--(x8)--7--(x8)--0--(x8)--3--------8--(x8)--5--(x8)--7--(x16)---|
C ---8--------7--------0-----------------8--------5--------7----------|

Gtr. 1
2:58
D -----------------------------------|
A -----------------------------------|
F -----------------------------------|
C ---3-----3-------------------------| x4
G ---3-0-0-3-0-0-0-0--0-0-0--0-0-0---|
C ---3-0-0-3-0-0-0-0--0-0-0--0-0-0---|
        * *   * * * *  * * *  * * *

Legend:
*      Palm Mute
X      Dead Note
b      Bend Note (Or use whammy bar. On the solo use the whammy bar.)
                 (Guitar 3 only uses the whammy bar.)
h      Hammer-On
p      Pull-Off
~      Let Note Ring
t      Tremelo Picking

END
Tap to rate this tab
 
# A B C D E F G H I J K L M N O P Q R S T U V W X Y Z