Song name
# A B C D E F G H I J K L M N O P Q R S T U V W X Y Z

Escape The Fate - Make Up tab

Intro
Guitar 1		Up and Down Strum
e|--7-7-7-7---5-5-5-5---5/-7-----3--3--3--3-----|
B|--7-7-7-7---5-5-5-5---5/-7-----3--3--3--3-----|
G|--7-7-7-7---5-5-5-5---5/-7-----3--3--3--3-----|
D|--9-9-9-9---7-7-7-7---7/-9-----5--5--5--5-----|	x4
A|--9-9-9-9---7-7-7-7---7/-9-----5--5--5--5-----|
E|--7-7-7-7---5-5-5-5---5/-7-----3--3--3--3-----|
	F Major

Guitar 2
e|---------------------------------------------------------|
B|---------------------------------------------------------|
G|-------------------------------4444--5555--7777--9999----|
D|---------------------------------------------------------|	x3
A|---------------------------------------------------------|
E|---------------------------------------------------------|

Verse
Guitar 1
e|------------------------------------------------------------|
B|------------------------------------------------------------|
G|------------------------------------------------------------|
D|------5----------7---------6--------9---------10------9-----|	       x2
A|------x-x16------x-x14-----x-x2-----x-x16------x-x8---x-x8--|
E|------3----------5---------4--------7----------8------7-----|
pm      .	   .	     .	      .	         .	.


Chorus
e|--7-7-7-7---5-5-5-5---5/-7-----3--3--3--3-----|
B|--7-7-7-7---5-5-5-5---5/-7-----3--3--3--3-----|
G|--7-7-7-7---5-5-5-5---5/-7-----3--3--3--3-----|
D|--9-9-9-9---7-7-7-7---7/-9-----5--5--5--5-----|	x2
A|--9-9-9-9---7-7-7-7---7/-9-----5--5--5--5-----|
E|--7-7-7-7---5-5-5-5---5/-7-----3--3--3--3-----|

Guitar 2
e|---------------------------------------------------------|
B|---------------------------------------------------------|
G|-------------------------------4444--5555--7777--9999----|
D|---------------------------------------------------------|	x2
A|---------------------------------------------------------|
E|---------------------------------------------------------|



Guitar 1

e|--7---7---7---7-----5---5---5---5---5-----7---7---7---7---7---7----2/-3--|
B|--7---7---7---7-----5---5---5---5---5-----7---7---7---7---7---7----2/-3--|
G|--7---7---7---7-----5---5---5---5---5-----7---7---7---7---7---7----2/-3--|
D|--9---9---9---9-----7---7---7---7---7-----9---9---9---9---9---9----4/-5--|
A|--9---9---9---9-----7---7---7---7---7-----9---9---9---9---9---9----4/-5--|
E|--7---7---7---7-----5---5---5---5---5-----7---7---7---7---7---7----2/-3--|

e|--7---7---7---7-----5---5---5---5---5-----|---7---|
B|--7---7---7---7-----5---5---5---5---5-----|---7---|
G|--7---7---7---7-----5---5---5---5---5-----|---7---|
D|--9---9---9---9-----7---7---7---7---7-----|---9---|
A|--9---9---9---9-----7---7---7---7---7-----|---9---|
E|--7---7---7---7-----5---5---5---5---5-----|---7---|

Verse
Guitar 1
e|------------------------------------------------------------|
B|------------------------------------------------------------|
G|------------------------------------------------------------|
D|------5----------7---------6--------9---------10------9-----|	       x2
A|------x-x16------x-x14-----x-x2-----x-x16------x-x8---x-x8--|
E|------3----------5---------4--------7----------8------7-----|
pm      .	   .	     .	      .	         .	.


Bridge

e|------------------------------------|
B|------------------------------------|
G|----------12-11-12-11-12-11-15-11---|
D|------------------------------------|	x2
A|------------------------------------|
E|------------------------------------|

e|--7---7-----5---7---3-----|
B|--7---7-----5---7---3-----|
G|--7---7-----5---7---3-----|
D|--9---9-----7---9---5-----|
A|--9---9-----7---9---5-----|
E|--7---7-----5---7---3-----|




e|------------------------------------|
B|------------------------------------|
G|----------12-11-12-11-12-11-15-11---|
D|------------------------------------|	x2
A|------------------------------------|
E|------------------------------------|

e|--7---7-----5---7---3-----|
B|--7---7-----5---7---3-----|
G|--7---7-----5---7---3-----|
D|--9---9-----7---9---5-----|
A|--9---9-----7---9---5-----|
E|--7---7-----5---7---3-----|

Vocal w/ Guitar 1
e|---------------------------------------------------------|
B|---------------------------------------------------------|
G|-------------------------------------5555--7777--9999----|
D|---------------------------------------------------------|	x3
A|---------------------------------------------------------|
E|---------------------------------------------------------|

Chorus
Guitar 1

e|--7---7---7---7-----5---5---5---5---5-----7---7---7---7---7---7----2/-3--|
B|--7---7---7---7-----5---5---5---5---5-----7---7---7---7---7---7----2/-3--|
G|--7---7---7---7-----5---5---5---5---5-----7---7---7---7---7---7----2/-3--|
D|--9---9---9---9-----7---7---7---7---7-----9---9---9---9---9---9----4/-5--|
A|--9---9---9---9-----7---7---7---7---7-----9---9---9---9---9---9----4/-5--|
E|--7---7---7---7-----5---5---5---5---5-----7---7---7---7---7---7----2/-3--|

e|--7---7---7---7-----5---5---5---5---5-----|---7---|
B|--7---7---7---7-----5---5---5---5---5-----|---7---|
G|--7---7---7---7-----5---5---5---5---5-----|---7---|
D|--9---9---9---9-----7---7---7---7---7-----|---9---|		x2 Chorus
A|--9---9---9---9-----7---7---7---7---7-----|---9---|
E|--7---7---7---7-----5---5---5---5---5-----|---7---|

If im wrong, too bad. I tried.
Tap to rate this tab
 
# A B C D E F G H I J K L M N O P Q R S T U V W X Y Z