Song name
# A B C D E F G H I J K L M N O P Q R S T U V W X Y Z

Escape The Fate - Guillotine tab

The Guillotine Solo Tab by Electrarookie
Watch a video of me playing it at www.youtube.com/ay1054
Drop C Tuning

D---------------------16-17-19-16-17---------------------------|
A-17--------17~-17b-17--------------17-------------------------|
F-16b-16b-14--------------------------14/16--------------------|
C------------------------------------------16\14---------------|
G-----------------------------------------------16\14----------|
C----------------------------------------------------16\14-14\-|

D-----------------------------------------------------------|
A-----------------------------------------------------------|
F------------6h7h9-------------7h9h11---------------9h11h13-|
C------6h7h9-------------7h9h11--------------9h11h12--------|
G-5h7h9------------7h9h11-------------9h11h12---------------|
C-----------------------------------------------------------|

D------------------------------------------------------------|
A------------------------------------------------------------|
F-----------------11h13h14-----------------13h14h16-13h14h16-|
C---------11h12h14-----------------12h14h16------------------|
G-11h12h14-----------------12h14h16--------------------------|
C------------------------------------------------------------|

D------------------17-16-|
A------------------------|
F-16b-14~-14-16b-14------|
C------------------------|
G------------------------|
C------------------------|
Tap to rate this tab
# A B C D E F G H I J K L M N O P Q R S T U V W X Y Z