Song name
# A B C D E F G H I J K L M N O P Q R S T U V W X Y Z

Escape The Fate - The Day I Left The Womb tab

----------------------------------------------------------------------------
The Day I Left The Womb- Escape The Fate
----------------------------------------------------------------------------
Tabbed by:jawz444
Email:jawz5211@aol.com

Tuning:D Tuning. (D G C F A D)
 Its the same as drop C tunig, except the 6th string is tuned up 1 step making it "D".
 Also listen to the strumming pattern closly, its pretty trcky, but youll get it.Please 
email me for corrections! :)
D|---12-----12----10------10-------7-----7------8----8---------------------------------|
A|-----10------10-----10------10------10-----10----10----10----------------------------|
F|-------------------------------------------------------------------------------------|
C|-------------------------------------------------------------------------------------|
G|-------------------------------------------------------------------------------------|
D|-------------------------------------------------------------------------------------|

D|----12----12-------10-------10---------15-------15-------12------10-----------------|
A|-------10-----10-------10------10----------10--------10------10-----10--------------|
F|------------------------------------------------------------------------------------|
C|------------------------------------------------------------------------------------|
G|------------------------------------------------------------------------------------|
D|------------------------------------------------------------------------------------|
            Verse 1
e|------------3------------------------------------------------------------------|
B|---1--------1------------------------------------------------------------------|
G|---2--------2------------------------------------------------------------------|
D|---2--------2------------------------------------------------------------------|
A|-------------------------------------------------------------------------------|
E|-------------------------------------------------------------------------------|
            Chorus
e|------------3---------------------------------------------------------------------|
B|-------1----1---------------------------------------------------------------------|
G|-------2----2---------5-----------------------------------------------------------|
D|-------2----2---------5----3------5-----------------------------------------------|
A|----------------------3----3------5-----------------------------------------------|
E|---------------------------1------3-----------------------------------------------|

e|---------------------------------------------------------------------------|
B|---------------------------------------------------------------------------|
G|---------------------------------------------------------------------------|
D|---------------------------------------------------------------------------|
A|---------------------------------------------------------------------------|
E|---------------------------------------------------------------------------|

e|---------------------------------------------------------------------------|
B|---------------------------------------------------------------------------|
G|---------------------------------------------------------------------------|
D|---------------------------------------------------------------------------|
A|---------------------------------------------------------------------------|
E|---------------------------------------------------------------------------|

e|---------------------------------------------------------------------------|
B|---------------------------------------------------------------------------|
G|---------------------------------------------------------------------------|
D|---------------------------------------------------------------------------|
A|---------------------------------------------------------------------------|
E|---------------------------------------------------------------------------|

e|---------------------------------------------------------------------------|
B|---------------------------------------------------------------------------|
G|---------------------------------------------------------------------------|
D|---------------------------------------------------------------------------|
A|---------------------------------------------------------------------------|
E|---------------------------------------------------------------------------|


************************************

| /   slide up
| \   slide down
| h   hammer-on
| p   pull-off
| ~   vibrato
| +   harmonic
| | b   Bend
|  br  Bend release

************************************
Tap to rate this tab
# A B C D E F G H I J K L M N O P Q R S T U V W X Y Z