Song name
# A B C D E F G H I J K L M N O P Q R S T U V W X Y Z

Escape The Fate - Gorgeous Nightmare tab

d|---------------------------------------------------------------------------|
A|------------------------------------20-19-20b21r20b22r20-------------------|
F|---------------------20-19-19b21r19----------------------------------------|
C|---------------------------------------------------------------------------|
G|-18b-20b-17-18-17-15-------------------------------------------------------|
C|---------------------------------------------------------------------------|

d|---------------------------------------------------------------------------|
A|---------------------------------------------------------------------------|
F|---------------------------------------------------------------------------|
C|-20-19-17-15-17---20-19-17-15-17-14h17p14-------------14h17p14-------------|
G|------------------------------------------17-15-15-15----------17-15-15-15-|
C|---------------------------------------------------------------------------|
                                               ********             ********

d|----------------------------------------------------------------------------------|
A|----------------------------------------------------------------------------------|
F|----------------------------------------------------------18h21p18----------------|
C|-15h18p15-------18h21p18-------------18h21p18----------------------19-23b24t~r23db|
G|----------17-17----------21-19-19-19----------21-19-19-19-------------------------|
C|----------------------------------------------------------------------------------|
                              ********             ********

d|--------------------------------------------------10-13b14r13-12b13r12-10--|
A|---------------------------------------------------------------------------|
F|-------------------------0-------------------------------------------------|
C|---3-0---3-0---0-X-X---3-----2b---3-0---3-0---0----------------------------|
G|-----------------X-X-1-----0-----------------------------------------------|
C|-------0-----0---X-X------------------0-----0------------------------------|


Legend
* - Muted note
X - Dead note
b - Bend
r - Release
db - Dive bomb
t - Tremolo pick
~ - Let note ring
Tap to rate this tab
# A B C D E F G H I J K L M N O P Q R S T U V W X Y Z