Song name
# A B C D E F G H I J K L M N O P Q R S T U V W X Y Z

Escape The Fate - Webs We Weave tab

Took me forever but I finally got it, especially that solo. All the open frets are palm 
muted. And if you want to play this and you in Drop D,
        just move everything down by 2 frets.

Tuning is in Drop C
                                Intro x2
 (Drum part)
|---------------------------------------------------------------------|
|---------------------------------------------------------------------|
|-------------0-22-1212121212\111111/1212-0-22-1616161616\141414/1616-|
|-------------0-22-x-x-x-x-x-\x-x-x-x-x-x-0-22-x-x-x-x-x-\x-x-x-/x-x--|
|-------------0-22-1010101010\9-9-9-/1010-0-22-1414141414\121212/1414-|
              .                           .
|------------------------------------------------------------|
|------------------------------------------------------------|
|------------------------------------------------------------|
|-121212121212\11111111/12\11/12121212/1414\1111111-0-0-0-22-|
|-x-x-x-x-x-x-\x-x-x-x-/x-\x-/x-x-x-x-/x-x-\x-x-x-x-0-0-0-22-|
|-101010101010\9-9-9-9-/10\9-/10101010/1212\9-9-9-9-0-0-0-22-|
                                                    . . .
                                Verse
          (Can be D 5th fret or A 10th fret your pick)
|-------------------5555-------------------------------------------------|
|-5555-7777-88-----------8888-77-----5555-7777-33------------------------|
|------------------------------------------------------------------------|
|--------------0-22--------------0-55--------------5-55-6/7\6-4-44-6/7\6-|
|--------------0-22--------------0-55--------------5-55-x/x\x-4-44-x/x\x-|
|--------------0-22--------------0-55--------------5-55-4/5\4-4-44-4/5\4-|
               .                 .
|---------------------------------------------------------------------------|
|---------------------------------------------------------------------------|
|---------------------------------------------------------------------------|
|999-999-999-999/111111-111111-111111-111111/121212-121212-121212-121212\11-|
|xxx-xxx-xxx-xxx/x-x-x--x-x-x--x-x-x--x-x-x-/x-x-x--x-x-x--x-x-x--x-x-x-\x--|
|777-777-777-777/9-9-9--9-9-9--9-9-9--9-9-9-/101010-101010-101010-101010\9--|

|-----|
|-----|
|-----|
|-5-4-|
|-5-4-|
|-5-4-| Go back to the intro for the chorus and then
      Don't do palm mute for first part or intro when repeated
|-----------|
|-----------|
|-----------|
|-2-22-2-22-|
|-2-22-2-22-|
|-2-22-2-22-| Then go back to verse
  .    .

Go back to intro after 2nd time of verse and instead of strumming the second fret twice, 
do solo. It's better to hold the 12th fret down while doing solo.

|-----------------------------------------------|
|-----------------------------------------------|
|----------14-----------------------17----------|
|-12-15-15----12-15-12-14-12-15-12-----12-15-14-|
|-----------------------------------------------|
|-----------------------------------------------|

                (You can do F on the 12th fret for easy reach instead of
                17th fret on C)
|----------------------------------------------|
|----------------------------------------------|
|----------14----------------------------------|
|-12-15-15----12-15-12-14-12-15-12-17-12-14----|
|-------------------------------------------15-|
|----------------------------------------------|

then repeat intro once and then
|---------------|
|---------------|
|---------------|
|-0-22-2-2-2----|
|-0-22-2-2-2----|
|-0-22-2-2-2-2b-|
  .    .   .
Tap to rate this tab
 
# A B C D E F G H I J K L M N O P Q R S T U V W X Y Z