Song name
# A B C D E F G H I J K L M N O P Q R S T U V W X Y Z

Escape The Fate - Lost In Darkness tab

-------------------------------------------------------------------------------
                             Lost In Darkness - Escape the Fate
-------------------------------------------------------------------------------
Tabbed by: MusicMan24
E-mail: a7t1r1@hotmail.com


I apologize if the solo is a little hard to follow, it's just the way I
play it and I think it sounds fine, and the only other part I'm not 100%
sure about is in the chorus for Gtr. 1, so please rate and let me know
what you think.


Tuning: Both guitars - Drop C (CGCFAD)



Intro - Come in at 0:18


Gtr. 1 - x2

d|----10~--------------------9-10~-------------------|
A|---------10--9b10r9~---------------10-12-9b10r9~---|
F|11---------------------11--------------------------|
C|---------------------------------------------------|
G|---------------------------------------------------|
C|---------------------------------------------------|


Gtr. 2

d|------------------------------------------------------|
A|------------------------------------------------------|
F|------------------------------------------------------|
C|----12~--------------------11-12~---------------------|
G|9--------12--11b12r11~---9----------12-14-11b12r11~---|
C|------------------------------------------------------|



Verse (Gtr.2 is silent)


Gtr. 1 - x2

d|----10~--------------------9-10~-------------------|
A|---------10--9b10r9~---------------10-12-9b10r9~---|
F|11---------------------11--------------------------|
C|---------------------------------------------------|
G|---------------------------------------------------|
C|---------------------------------------------------|


After the 2nd time: (I don't think this part is totally right)

d|-----------------------|
A|--9b10~~~-----7b8~~~---|
F|7-----------4----------|
C|-----------------------|
G|-----------------------|
C|-----------------------|


Chorus


Gtr. 1

d|---------------------------------------------------------------|
A|77777-1515-141414-121212-101010-77777-1515-141414-101010-999---|
F|xxxxx--x-x--x-x-x--x-x-x--x-x-x-xxxxx--x-x--x-x-x--x-x-x-xxx---|
C|44444-1212-111111--9-9-9--7-7-7-44444-1212-111111--7-7-7-666---|
G|---------------------------------------------------------------|
C|---------------------------------------------------------------|

d|-------------------------------------------------------------------|
A|77777-1515-141414-121212-101010-121212121212-14-14-1010-9-10--9~---|
F|xxxxx--x-x--x-x-x--x-x-x--x-x-x--x-x-x-x-x-x--x--x--x-x-x--x--x~---|
C|44444-1212-111111--9-9-9--7-7-7--9-9-9-9-9-9-11-11--7-7-6--7--6~---|
G|-------------------------------------------------------------------|
C|-------------------------------------------------------------------|


Gtr. 2

d|-------------------|    |----------------|
A|-------------------|    |----------------|
F|---------7--6--6---|    |7--7~---6--6~---|
C|4--4--7--7--6--6---| x3 |7--7~---6--6~---|
G|4--4--7--5--4--4---|    |5--5~---4--4~---|
C|4--4--7------------|    |----------------|


Both guitars - Intro x1


Gtr. 1 - Verse x2 (Gtr. 2 silent again)


Chorus


Gtr. 1

d|---------------------------------------------------------------|
A|77777-1515-141414-121212-101010-77777-1515-141414-101010-999---|
F|xxxxx--x-x--x-x-x--x-x-x--x-x-x-xxxxx--x-x--x-x-x--x-x-x-xxx---|
C|44444-1212-111111--9-9-9--7-7-7-44444-1212-111111--7-7-7-666---|
G|---------------------------------------------------------------|
C|---------------------------------------------------------------|

d|-------------------------------------------------------------------|
A|77777-1515-141414-121212-101010-121212121212-14-14-1010-9-10--9~---|
F|xxxxx--x-x--x-x-x--x-x-x--x-x-x--x-x-x-x-x-x--x--x--x-x-x--x--x~---|
C|44444-1212-111111--9-9-9--7-7-7--9-9-9-9-9-9-11-11--7-7-6--7--6~---|
G|-------------------------------------------------------------------|
C|-------------------------------------------------------------------|

d|-----------------------------------|
A|121212121212-14-14-1010-9-10--9~---|
F|-x-x-x-x-x-x--x--x--x-x-x--x--x~---|
C|-9-9-9-9-9-9-11-11--7-7-6--7--6~---|
G|-----------------------------------|
C|-----------------------------------|


Gtr. 2

d|-------------------|    |----------------------------------|
A|-------------------|    |----------------------------------|
F|---------7--6--6---|    |7--7~---6--6~--7--7~---66666666---|
C|4--4--7--7--6--6---| x3 |7--7~---6--6~--7--7~---66666666---|
G|4--4--7--5--4--4---|    |5--5~---4--4~--5--5~---44444444---|
C|4--4--7------------|    |----------------------------------|
                                                  ........

Solo


Gtr. 1

d|------------------------------------------------------------------------|
A|---------14----------15-----14~-----------14----------17------14b15r14~-|
F|11-13-14----14-13-11---14-11-----11-13-14----14-13-11---14-11-----------|
C|------------------------------------------------------------------------|
G|------------------------------------------------------------------------|
C|------------------------------------------------------------------------|

d|14br-14br------------------------------------------------------------------|
A|17br-17br------------------------------------------------------------------|
F|------------19-18b20r18----11-14-16-16b17r16b17r16p14-11-14-16-13b12r13~~~-|
C|------------------------19-------------------------------------------------|
G|---------------------------------------------------------------------------|
C|---------------------------------------------------------------------------|


Gtr. 2 - Chorus x3


PAUSE


Last Chorus


Gtr. 1

d|---------------------------------------------------------------|
A|77777-1515-141414-121212-101010-77777-1515-141414-101010-999---|
F|xxxxx--x-x--x-x-x--x-x-x--x-x-x-xxxxx--x-x--x-x-x--x-x-x-xxx---|
C|44444-1212-111111--9-9-9--7-7-7-44444-1212-111111--7-7-7-666---|
G|---------------------------------------------------------------|
C|---------------------------------------------------------------|

d|-------------------------------------------------------------------|
A|77777-1515-141414-121212-101010-121212121212-14-14-1010-9-10--9~---|
F|xxxxx--x-x--x-x-x--x-x-x--x-x-x--x-x-x-x-x-x--x--x--x-x-x--x--x~---|
C|44444-1212-111111--9-9-9--7-7-7--9-9-9-9-9-9-11-11--7-7-6--7--6~---|
G|-------------------------------------------------------------------|
C|-------------------------------------------------------------------|

d|---------------------------------------------------------------|
A|77777-1515-141414-121212-101010-77777-1515-141414-101010-999---|
F|xxxxx--x-x--x-x-x--x-x-x--x-x-x-xxxxx--x-x--x-x-x--x-x-x-xxx---|
C|44444-1212-111111--9-9-9--7-7-7-44444-1212-111111--7-7-7-666---|
G|---------------------------------------------------------------|
C|---------------------------------------------------------------|

d|-------------------------------------------------------------------|
A|77777-1515-141414-121212-101010-121212121212-14-14-1010-9-10--9~---|
F|xxxxx--x-x--x-x-x--x-x-x--x-x-x--x-x-x-x-x-x--x--x--x-x-x--x--x~---|
C|44444-1212-111111--9-9-9--7-7-7--9-9-9-9-9-9-11-11--7-7-6--7--6~---|
G|-------------------------------------------------------------------|
C|-------------------------------------------------------------------|

d|----------------------------------------------|
A|121212121212-14-14-1010-9-10--9---7~~~~~~~~---|
F|-x-x-x-x-x-x--x--x--x-x-x--x--x---x~~~~~~~~---|
C|-9-9-9-9-9-9-11-11--7-7-6--7--6---4~~~~~~~~---|
G|----------------------------------------------|
C|----------------------------------------------|



Gtr. 2

d|-------------------|    |-------------------|
A|-------------------|    |-------------------|
F|---------7--6--6---|    |7--7~---66666666---|
C|4--4--7--7--6--6---| x3 |7--7~---66666666---|
G|4--4--7--5--4--4---|    |5--5~---44444444---|
C|4--4--7------------|    |-------------------|
                                   ........

d|-------------------|    |----------------------------------------------|
A|-------------------|    |----------------------------------------------|
F|---------7--6--6---|    |7--7~---6--6~---7--7~---66666666--------------|
C|4--4--7--7--6--6---| x3 |7--7~---6--6~---7--7~---66666666--4~~~~~~~~---|
G|4--4--7--5--4--4---|    |5--5~---4--4~---5--5~---44444444--4~~~~~~~~---|
C|4--4--7------------|    |----------------------------------4~~~~~~~~---|
                                                   ........


END



************************************

| /   slide up
| \   slide down
| h   hammer-on
| p   pull-off
| ~   vibrato
| +   harmonic
| x   Mute note
| b   Bend
| pb  Pre-bend
| br  Bend release
| pbr Pre-bend release
| brb Bend release bend

************************************
Tap to rate this tab
# A B C D E F G H I J K L M N O P Q R S T U V W X Y Z