Song name
# A B C D E F G H I J K L M N O P Q R S T U V W X Y Z

Escape The Fate - Harder Than You Know tab

-----------------------------------------------------------------------------
                    Escape The Fate - Harder Than You Know
-----------------------------------------------------------------------------
Tabbed by:Metalcoreking
Email:Matthessell@live.com

Tuning:CGCFAD

INTRO
D|----------------------------5---6---8p6-----------5-6---------------------|
A|-8-------10-----------8-----------8-----6-----8-------8p6-8---10---8------|
F|---10---------10----9---6-----6-----------7---------6------------6--------|
C|------10---------10-------7---------8-------8---8---8-------8-------------|
G|-8----------8-------------------------------------------------------------|
C|----------------------7---------------------------------------------------|
 |                                                                          |
D|----------------------------5---6---8p6-----------5-6---------------------|
A|-8-------10-----------8-----------8-----6-----8-----6---------------------|
F|---10---------10----9---6-----6-----------7---------7---------------------|
C|------10---------10-------7---------8-------8---8---8---------------------|
G|-8----------8---------------------------------------8---------------------|
C|----------------------7---------------------------------------------------|

VERSE I
D|----------------------------5---6---8p6-----------5-6-----------------(x2)|
A|-8-------10-----------8-----------8-----6-----8-------8p6-8---10---8------|
F|---10---------10----9---6-----6-----------7---------6------------6--------|
C|------10---------10-------7---------8-------8---8---8-------8-------------|
G|-8----------8-------------------------------------------------------------|
C|----------------------7---------------------------------------------------|

PRE CHORUS
D|--------------------------------------------------------------------------|
A|-6-6-6-6-6-6-6-6-8-8-8-8-8-8-8-8--1010101010101010-8-8-8-8-8-8-8-8--------|
F|-7-7-7-7-7-7-7-7-9-9-9-9-9-9-9-9--1010101010101010-9-9-9-9-9-9-9-9--------|
C|-8-8-8-8-8-8-8-8-1010101010101010-1212121212121212-1010101010101010-------|
G|-8-8-8-8-8-8-8-8-1010101010101010-1212121212121212-1010101010101010-------|
C|--------------------------------------------------------------------------|
 |                                                                          |
D|--------------------------------------------------------------------------|
A|-6-6-6-6-6-6-6-6-8--------------------------------------------------------|
F|-7-7-7-7-7-7-7-7-9--------------------------------------------------------|
C|-8-8-8-8-8-8-8-8-10-------------------------------------------------------|
G|-8-8-8-8-8-8-8-8-10-------------------------------------------------------|
C|--------------------------------------------------------------------------|

CHORUS
D|------8--8-------------7--7-7----------5--5-5-5---------------------------|
A|-8--8-8--8-8-8---8-8-8-8--8-8-8--6-6-6-6--6-6-6---------------------------|
F|-10-1010-101010--9-9-9-9--9-9-9--7-7-7-7--7-7-7--6-6-6-6--6-6-6-----------|
C|-10-1010-101010--9-9-9-9--9-9-9--7-7-7-7--7-7-7--6-6-6-6--6-6-6-----------|
G|-8--8-8--8-8-8---7-7-7-7--7-7-7--5-5-5-5--5-5-5--4-4-4-4--4-4-4-----------|
C|--------------------------------------------------------------------------|
 |                                                                          |
D|------8--8-------------7--7-7----------5--5-5-5---------------------------|
A|-8--8-8--8-8-8---8-8-8-8--8-8-8--6-6-6-6--6-6-6---------------------------|
F|-10-1010-101010--9-9-9-9--9-9-9--7-7-7-7--7-7-7--6------------------------|
C|-10-1010-101010--9-9-9-9--9-9-9--7-7-7-7--7-7-7--6------------------------|
G|-8--8-8--8-8-8---7-7-7-7--7-7-7--5-5-5-5--5-5-5--4------------------------|
C|--------------------------------------------------------------------------|

VERSE II
D|----------------------------5---6---8p6-----------5-6---------------------|
A|-8-------10-----------8-----------8-----6-----8-----6---------------------|
F|---10---------10----9---6-----6-----------7---------7---------------------|
C|------10---------10-------7---------8-------8---8---8---------------------|
G|-8----------8---------------------------------------8---------------------|
C|----------------------7---------------------------------------------------|
 |                                                                          |
D|----------------------------5---6---8p6-----------5-6-----------------(x2)|
A|-8-------10-----------8-----------8-----6-----8-------8p6-8---10---8------|
F|---10---------10----9---6-----6-----------7---------6------------6--------|
C|------10---------10-------7---------8-------8---8---8-------8-------------|
G|-8----------8-------------------------------------------------------------|
C|----------------------7---------------------------------------------------|

PRE CHORUS
D|--------------------------------------------------------------------------|
A|-6-6-6-6-6-6-6-6-8-8-8-8-8-8-8-8--1010101010101010-8-8-8-8-8-8-8-8--------|
F|-7-7-7-7-7-7-7-7-9-9-9-9-9-9-9-9--1010101010101010-9-9-9-9-9-9-9-9--------|
C|-8-8-8-8-8-8-8-8-1010101010101010-1212121212121212-1010101010101010-------|
G|-8-8-8-8-8-8-8-8-1010101010101010-1212121212121212-1010101010101010-------|
C|--------------------------------------------------------------------------|
 |                                                                          |
D|--------------------------------------------------------------------------|
A|-6-6-6-6-6-6-6-6-8--------------------------------------------------------|
F|-7-7-7-7-7-7-7-7-9--------------------------------------------------------|
C|-8-8-8-8-8-8-8-8-10-------------------------------------------------------|
G|-8-8-8-8-8-8-8-8-10-------------------------------------------------------|
C|--------------------------------------------------------------------------|

CHORUS
D|------8--8-------------7--7-7----------5--5-5-5-----------------------(x3)|
A|-8--8-8--8-8-8---8-8-8-8--8-8-8--6-6-6-6--6-6-6---------------------------|
F|-10-1010-101010--9-9-9-9--9-9-9--7-7-7-7--7-7-7--6-6-6-6--6-6-6-----------|
C|-10-1010-101010--9-9-9-9--9-9-9--7-7-7-7--7-7-7--6-6-6-6--6-6-6-----------|
G|-8--8-8--8-8-8---7-7-7-7--7-7-7--5-5-5-5--5-5-5--4-4-4-4--4-4-4-----------|
C|--------------------------------------------------------------------------|
 |                                                                          |
D|------8--8-------------7--7-7----------5--5-5-5---------------------------|
A|-8--8-8--8-8-8---8-8-8-8--8-8-8--6-6-6-6--6-6-6---------------------------|
F|-10-1010-101010--9-9-9-9--9-9-9--7-7-7-7--7-7-7---------------------------|
C|-10-1010-101010--9-9-9-9--9-9-9--7-7-7-7--7-7-7---------------------------|
G|-8--8-8--8-8-8---7-7-7-7--7-7-7--5-5-5-5--5-5-5---------------------------|
C|--------------------------------------------------------------------------|

BREAKDOWN
D|--------------------------------------------------------------------------|
A|--------------------------------------------------------------------------|
F|-7-7-7-7-7-7-7-7-6-6-6-6-6-6-6-6------------------------------------------|
C|-7-7-7-7-7-7-7-7-6-6-6-6-6-6-6-6------------------------------------------|
G|-5-5-5-5-5-5-5-5-4-4-4-4-4-4-4-4------------------------------------------|
C|--------------------------------------------------------------------------|
 | x x x x x x x x x x x x x x x x                                          |
D|----------------------------------------------------------------------(x2)|
A|--------------------------------------------------------------------------|
F|-7-7-7-7-7-7-7-7-6-6-6-6-6-6-6-6-5-5-5-5-5-5-5-5-5-5-5-5-5-5-5-5----------|
C|-7-7-7-7-7-7-7-7-6-6-6-6-6-6-6-6-5-5-5-5-5-5-5-5-5-5-5-5-5-5-5-5----------|
G|-5-5-5-5-5-5-5-5-4-4-4-4-4-4-4-4-3-3-3-3-3-3-3-3-3-3-3-3-3-3-3-3----------|
C|--------------------------------------------------------------------------|

SOLO
D|--------------------------------------------------------------------------|
A|----------------------------------13b-------------------------------------|
F|------9-10/12\10-----10-12/15\14------------------------------------------|
C|------------------12------------------------------------------------------|
G|-/8-8---------------------------------------------------------------------|
C|--------------------------------------------------------------------------|
 |                                                                          |
D|--------------------------------------------------------------------------|
A|---------------------------------8-10-------------------------------------|
F|--------------------------7-9-10------------------------------------------|
C|-------------------7-8-10-------------------------------------------------|
G|-5-7-8-10-5-7-8-10--------------------------------------------------------|
C|--------------------------------------------------------------------------|
 |                                                                          |
D|-----------------------------------------13-------------------------------|
A|-10b-------------10b-----------------13b----13b---------------------------|
F|-----10-------10-----10----10-12-10\------------12b-10--------------------|
C|--------12-12-----------11------------------------------------------------|
G|--------------------------------------------------------------------------|
C|--------------------------------------------------------------------------|

OUTRO
D|----------------------------5---6---8p6-----------5-6-----------------(x2)|
A|-8-------10-----------8-----------8-----6-----8-------8p6-8---10---8------|
F|---10---------10----9---6-----6-----------7---------6------------6--------|
C|------10---------10-------7---------8-------8---8---8-------8-------------|
G|-8----------8-------------------------------------------------------------|
C|----------------------7---------------------------------------------------|

D|------8--8-------------7--7-7----------5--5-5-5---------------------------|
A|-8--8-8--8-8-8---8-8-8-8--8-8-8--6-6-6-6--6-6-6---------------------------|
F|-10-1010-101010--9-9-9-9--9-9-9--7-7-7-7--7-7-7--6-6-6-6--6-6-6-----------|
C|-10-1010-101010--9-9-9-9--9-9-9--7-7-7-7--7-7-7--6-6-6-6--6-6-6-----------|
G|-8--8-8--8-8-8---7-7-7-7--7-7-7--5-5-5-5--5-5-5--4-4-4-4--4-4-4-----------|
C|--------------------------------------------------------------------------|
 |                                                                          |
D|------8--8-------------7--7-7----------5--5-5-5---------------------------|
A|-8--8-8--8-8-8---8-8-8-8--8-8-8--6-6-6-6--6-6-6---------------------------|
F|-10-1010-101010--9-9-9-9--9-9-9--7-7-7-7--7-7-7--6------------------------|
C|-10-1010-101010--9-9-9-9--9-9-9--7-7-7-7--7-7-7--6------------------------|
G|-8--8-8--8-8-8---7-7-7-7--7-7-7--5-5-5-5--5-5-5--4------------------------|
C|--------------------------------------------------------------------------|

D|----------------------------5---6---8p6-----------5-6-----------------(x2)|
A|-8-------10-----------8-----------8-----6-----8-------8p6-8---10---8------|
F|---10---------10----9---6-----6-----------7---------6------------6--------|
C|------10---------10-------7---------8-------8---8---8-------8-------------|
G|-8----------8-------------------------------------------------------------|
C|----------------------7---------------------------------------------------|

************************************

| /   slide up
| \   slide down
| h   hammer-on
| p   pull-off
| ~   vibrato
| +   harmonic
| x   Mute note
| b   Bend
| pb  Pre-bend
| br  Bend release
| pbr Pre-bend release
| brb Bend release bend

************************************
Tap to rate this tab
 
# A B C D E F G H I J K L M N O P Q R S T U V W X Y Z