Song name
# A B C D E F G H I J K L M N O P Q R S T U V W X Y Z

Escape The Fate - My Apocalypse tab

-----------------------------------------------------------------------------
                          Escape The Fate - My Apocalypse
-----------------------------------------------------------------------------
Tabbed by:Metalcoreking
Email:Matthessell@live.com

Tuning:CGCFAD

INTRO
D|--------------------------------------------------------------------------|
A|--8-8-8-8-8-8-8-8--------------------8-8-8-8-8-8-8h10p8--8---9-9-9-9-9-9-9|
F|--9-9-9-9-9-9-9-9---9-9-9-9-9-9-9-9--9-9-9-9-9-9---------9--10101010101010|
C|--7-7-7-7-7-7-7-7--1010101010101010--7-7-7-7-7-7--------7--8-8-8-8-8-8-8-8|
G|-0----------------8-8-8-8-8-8-8-8-8-0-------------------------------------|
C|--------------------------------------------------------------------------|

RIFF 
D|-15-12-------15-12-------15-12-------15-12-------------------15-12--------|
A|-------13-12-------13-12-------13-12-------13-12----12-13-12-------13-12--|
F|-------------------------------------------------14-----------------------|
C|--------------------------------------------------------------------------|
G|--------------------------------------------------------------------------|
C|--------------------------------------------------------------------------|
 |                                                                          |
D|--------------------------------------------------------------------------|
A|-13-15-13-12-12-13-12-----------------------------------------------------|
F|--------------------------------------------------------------------------|
C|--------------------------------------------------------------------------|
G|--------------------------------------------------------------------------|
C|--------------------------------------------------------------------------|

D|-------15----------15----------15----------15----------------15-----------|
A|-13-12----12-13-12----12-13-12----12-13-12----12----12-13-12----12-13-12--|
F|-------------------------------------------------14-----------------------|
C|--------------------------------------------------------------------------|
G|--------------------------------------------------------------------------|
C|--------------------------------------------------------------------------|
 |                                                                          |
D|--------------------------------------------------------------------------|
A|-13-15-13-15-17-----------------------------------------------------------|
F|--------------------------------------------------------------------------|
C|--------------------------------------------------------------------------|
G|--------------------------------------------------------------------------|
C|--------------------------------------------------------------------------|

D|-15----------15----------15----------15----------------------15-----------|
A|----12-13-12----12-13-12----12-13-12----12-13-12----12-13-12----12-13-12--|
F|-------------------------------------------------14-----------------------|
C|--------------------------------------------------------------------------|
G|--------------------------------------------------------------------------|
C|--------------------------------------------------------------------------|
 |                                                                          |
D|--------------------------------------------------------------------------|
A|-13-15-13-12-12-13-12-----------------------------------------------------|
F|--------------------------------------------------------------------------|
C|--------------------------------------------------------------------------|
G|--------------------------------------------------------------------------|
C|--------------------------------------------------------------------------|

D|-------15----------15----------15----------15----------------15-----------|
A|-13-12----12-13-12----12-13-12----12-13-12----12----12-13-12----12-13-12--|
F|-------------------------------------------------14-----------------------|
C|--------------------------------------------------------------------------|
G|--------------------------------------------------------------------------|
C|--------------------------------------------------------------------------|
 |                                                                          |
D|--------------------------------------------------------------------------|
A|-13-15-13-15-17-----------------------------------------------------------|
F|--------------------------------------------------------------------------|
C|--------------------------------------------------------------------------|
G|--------------------------------------------------------------------------|
C|--------------------------------------------------------------------------|

INTRO (x2) (QUIETLY)

VERSE I
D|-15----15----15----15----15----15----12----12-------------------------(x4)|
A|----13----13----13----13----13----13----13----13--------------------------|
F|--------------------------------------------------------------------------|
C|--------------------------------------------------------------------------|
G|--------------------------------------------------------------------------|
C|--------------------------------------------------------------------------|

CHORUS
D|--------------------------------------------------------------------------|
A|-------8-8-8-------8-8-8--------------------8-8-8-------------------------|
F|-2-2---9-9-9-2-2---9-9-9-------9-9-9--5-5---9-9-9-------------------------|
C|-2-2---7-7-7-2-2---7-7-7-3-3---101010-5-5---7-7-7-------------------------|
G|-0-0-0-------0-0-0-------3-3---8-8-8--3-3-0-------------------------------|
C|-------------------------3-3-0--------------------------------------------|
 |     x           x           x            x                               |
D|--------------------------------------------------------------------------|
A|-------8-8-8-------8-8-8--------------------------------------------------|
F|-2-2---9-9-9-2-2---9-9-9-------9-9-9--------------------------------------|
C|-2-2---7-7-7-2-2---7-7-7-3-3---101010-0-0-x-x-x-x-------------------------|
G|-0-0-0-------0-0-0-------3-3---8-8-8--0-0-x-x-x-x-------------------------|
C|-------------------------3-3-0--------0-0-x-x-x-x-------------------------|
       x           x           x        
RIFF

VERSE II
D|--------------------------------------------------------------------------|
A|--------------------------------------------------------------------------|
F|--------------------------------------------------------------------------|
C|-\\\\\\\\\\\\\\\\\\\\\\\\\\\\\--------------------------------------------|
G|-\\\\\\\\\\\\\\\\\\\\\\\\\\\\\PICKSLIDE-----------------------------------|
C|--------------------------------------------------------------------------|

D|--------------------------------------------------------------------------|
A|--------------------------------------------------------------------------|
F|-2--2--2--2--2--2--2-2-----------------5-5-5-5-5-5-5-5--------------------|
C|-2--2--2--2--2--2--2-2-3-3-3-3-3-3-3-3-5-5-5-5-5-5-5-5--------------------|
G|-0--0--0--0--0--0--0-0-3-3-3-3-3-3-3-3-3-3-3-3-3-3-3-3--------------------|
C|-----------------------3-3-3-3-3-3-3-3------------------------------------|
 |                                                                          |
D|--------------------------------------------------------------------------|
A|--------------------------------------------------------------------------|
F|-2--2--2--2--2--2--2-2----------------------------------------------------|
C|-2--2--2--2--2--2--2-2-3-3-3-3-3-3-3-3-0-0-0-0-0-0-0-3--------------------|
G|-0--0--0--0--0--0--0-0-3-3-3-3-3-3-3-3-0-0-0-0-0-0-0-3--------------------|
C|-----------------------3-3-3-3-3-3-3-3-0-0-0-0-0-0-0-3--------------------|

CHORUS

RIFF 

SOLO
D|--------------------------------------------------------------------------|
A|-13~-13~-12~-10~-13~-15~-12~-10~-13~-12~-10~-12~-13~-15~-17~-15~----------|
F|--------------------------------------------------------------------------|
C|--------------------------------------------------------------------------|
G|--------------------------------------------------------------------------|
C|--------------------------------------------------------------------------|

D|-t12t5h7h8-(x2)-t13t5h7h8-(x2)-t10t5h7h8-(x2)-t15t5h7h8-t17t5h7h8---------|
A|--------------------------------------------------------------------------|
F|--------------------------------------------------------------------------|
C|--------------------------------------------------------------------------|
G|--------------------------------------------------------------------------|
C|--------------------------------------------------------------------------|

D|-t12t5h7h8-(x4)-t13t5h7h8-(x4)-t10t5h7h8-(x4)-t15t5h7h8-(x2)-t17t5h7h8-15-|
A|--------------------------------------------------------------------------|
F|--------------------------------------------------------------------------|
C|--------------------------------------------------------------------------|
G|--------------------------------------------------------------------------|
C|--------------------------------------------------------------------------|

D|-t12t5h7h8-(x8)-t13t5h7h8-(x8)-t10t5h7h8-(x8)-t15t5h7h8-(x4)-t17t5h7h8-(x4|
A|--------------------------------------------------------------------------|
F|--------------------------------------------------------------------------|
C|--------------------------------------------------------------------------|
G|--------------------------------------------------------------------------|
C|--------------------------------------------------------------------------|

D|-t12t5h7h8-t13t5h7h8-t12t5h7h8-t15t5h7h8----------------------------------|
A|--------------------------------------------------------------------------|
F|--------------------------------------------------------------------------|
C|--------------------------------------------------------------------------|
G|--------------------------------------------------------------------------|
C|--------------------------------------------------------------------------|
 |                                                                          |
D|-t12t5h7h8-t17t5h7h8-t12t5h7h8-t17t5h7h8-(17LAST TIME)----------------(x4)|
A|--------------------------------------------------------------------------|
F|--------------------------------------------------------------------------|
C|--------------------------------------------------------------------------|
G|--------------------------------------------------------------------------|
C|--------------------------------------------------------------------------|

D|-8-5-8-5--7-5-5--7-5-5--7-5--5-0-5-0----------------------------------(x4)|
A|--------------------------------------------------------------------------|
F|--------------------------------------------------------------------------|
C|--------------------------------------------------------------------------|
G|--------------------------------------------------------------------------|
C|--------------------------------------------------------------------------|
 |                                                                          |
D|-13p0-12p0-8p0-7p0-8p0-7p0-5p0-7p0------------------------------------(x3)|
A|--------------------------------------------------------------------------|
F|--------------------------------------------------------------------------|
C|--------------------------------------------------------------------------|
G|--------------------------------------------------------------------------|
C|--------------------------------------------------------------------------|
 |                                                                          |
D|-8-0-0--7-0-0--5-0-0--7-0-0--5-7-5-0--------------------------------------|
A|--------------------------------------------------------------------------|
F|--------------------------------------------------------------------------|
C|--------------------------------------------------------------------------|
G|--------------------------------------------------------------------------|
C|--------------------------------------------------------------------------|
 |                                                                          |
D|-20-20-19-19-------------(x12)--20----------------------------------------|
A|-------------20-20-17-17-----------17-------------------------------------|
F|--------------------------------------17----------------------------------|
C|--------------------------------------------------------------------------|
G|--------------------------------------------------------------------------|
C|--------------------------------------------------------------------------|

************************************

| /   slide up
| \   slide down
| h   hammer-on
| p   pull-off
| ~   vibrato
| +   harmonic
| x   Mute note
| b   Bend
| pb  Pre-bend
| br  Bend release
| pbr Pre-bend release
| brb Bend release bend

************************************
Tap to rate this tab
# A B C D E F G H I J K L M N O P Q R S T U V W X Y Z