Song name
# A B C D E F G H I J K L M N O P Q R S T U V W X Y Z

Escape The Fate - Ungrateful tab

It's a bit choppy, but oh well..

If there are any problems please message me on tumblr or twitter.
Tumblr: fuckyeah-pierce-the-veil.tumblr.com
Twitter: @fuckyeahptv

|--------------------------------------------|
|--------------------------------------------|
|--------------------------------------------| x4
|--------------------------------------------|
|--------------------------------------------|
|-3-0-0-0--0-0---5-0-0-0--0-0---6-0-0-0--0-0-|


|--------------------|
|--------------------|
|--------------------|
|--------------------|
|---8-5--5---------2-|
|-------0----0-0-0-2-|


|------------------------------------|
|------------------------------------|
|------------------------------------|
|------------------------------------|
|---8-5--5--------------8-7--------7-|
|-------0----0-0-0-7-10-----10-7-10--|


|--------------------|
|--------------------|
|--------------------|
|--------------------|
|---8-5--5---------2-|
|-------0----0-0-0-2-|

|----------------------------------|
|----------------------------------|
|----------------------------------|
|----------------------5-----------|
|---8-5--5---------0-4---7-4-0-4-7-|
|-------0----0-0-0-----------------|


|--------------------|
|--------------------|
|--------------------|
|--------------------|
|---8-5--5---------2-|
|-------0----0-0-0-2-|


|------------------------------------|
|------------------------------------|
|------------------------------------|
|------------------------------------|
|---8-5--5--------------8-7--------7-|
|-------0----0-0-0-7-10-----10-7-10--|


|--------------------|
|--------------------|
|--------------------|
|--------------------|
|---8-5--5---------2-|
|-------0----0-0-0-2-|


|------------------------------------|
|------------------------------------|
|------------------------------------|
|------------------------------------|
|---8-5--5--------------8-7--------7-|
|-------0----0-0-0-7-10-----10-7-10--|

Chorus

|------------------------------------------|
|------------------------------------------|
|------------------------------------------|
|--8-8-8-8-8-8-8-8-10-10-10-10-10-10-10-10-|
|--8-8-8-8-8-8-8-8-10-10-10-10-10-10-10-10-|
|--8-8-8-8-8-8-8-8-10-10-10-10-10-10-10-10-|


|-----------------------------------------------|
|-----------------------------------------------|
|-----------------------------------------------|
|--12-12-12-12-12-12-12-10-10-10-10-10-10-10-10-|
|--12-12-12-12-12-12-12-10-10-10-10-10-10-10-10-|
|--12-12-12-12-12-12-12-10-10-10-10-10-10-10-10-|


|------------------------------------------|
|------------------------------------------|
|------------------------------------------|
|--8-8-8-8-8-8-8-8-10-10-10-10-10-10-10-10-|
|--8-8-8-8-8-8-8-8-10-10-10-10-10-10-10-10-|
|--8-8-8-8-8-8-8-8-10-10-10-10-10-10-10-10-|


|-----------------------------------------------------|
|-----------------------------------------------------|
|---------------------------------10-10-10-10-9-9-9-9-|
|--12-12-12-12-12-1-212-12-7-7-7-7-x-x-x-x-x-x-x-x-x-x|
|--12-12-12-12-12-12-12-12-7-7-7-7-8-8-8-8----7-7-7-7-|
|--12-12-12-12-12-12-12-12-7-7-7-7--------------------|

2nd Verse.

|--------------------------------------------|
|--------------------------------------------|
|--------------------------------------------| x4
|--------------------------------------------|
|--------------------------------------------|
|-3-0-0-0--0-0---5-0-0-0--0-0---6-0-0-0--0-0-|


|--------------------|
|--------------------|
|--------------------|
|--------------------|
|---8-5--5---------2-|
|-------0----0-0-0-2-|


|------------------------------------|
|------------------------------------|
|------------------------------------|
|------------------------------------|
|---8-5--5--------------8-7--------7-|
|-------0----0-0-0-7-10-----10-7-10--|


|--------------------|
|--------------------|
|--------------------|
|--------------------|
|---8-5--5---------2-|
|-------0----0-0-0-2-|


|----------------------------------|
|----------------------------------|
|----------------------------------|
|----------------------5-----------|
|---8-5--5---------0-4---7-4-0-4-7-|
|-------0----0-0-0-----------------|


|--------------------|
|--------------------|
|--------------------|
|--------------------|
|---8-5--5---------2-|
|-------0----0-0-0-2-|


|------------------------------------|
|------------------------------------|
|------------------------------------|
|------------------------------------|
|---8-5--5--------------8-7--------7-|
|-------0----0-0-0-7-10-----10-7-10--|


|--------------------|
|--------------------|
|--------------------|
|--------------------|
|---8-5--5---------2-|
|-------0----0-0-0-2-|


|------------------------------------|
|------------------------------------|
|------------------------------------|
|------------------------------------|
|---8-5--5--------------8-7--------7-|
|-------0----0-0-0-7-10-----10-7-10--|

Chorus. x2.

|------------------------------------------|
|------------------------------------------|
|------------------------------------------|
|--8-8-8-8-8-8-8-8-10-10-10-10-10-10-10-10-|
|--8-8-8-8-8-8-8-8-10-10-10-10-10-10-10-10-|
|--8-8-8-8-8-8-8-8-10-10-10-10-10-10-10-10-|


|-----------------------------------------------|
|-----------------------------------------------|
|-----------------------------------------------|
|--12-12-12-12-12-12-12-10-10-10-10-10-10-10-10-|
|--12-12-12-12-12-12-12-10-10-10-10-10-10-10-10-|
|--12-12-12-12-12-12-12-10-10-10-10-10-10-10-10-|


|------------------------------------------|
|------------------------------------------|
|------------------------------------------|
|--8-8-8-8-8-8-8-8-10-10-10-10-10-10-10-10-|
|--8-8-8-8-8-8-8-8-10-10-10-10-10-10-10-10-|
|--8-8-8-8-8-8-8-8-10-10-10-10-10-10-10-10-|


|-----------------------------------------------------|
|-----------------------------------------------------|
|---------------------------------10-10-10-10-9-9-9-9-|
|--12-12-12-12-12-1-212-12-7-7-7-7-x-x-x-x-x-x-x-x-x-x|
|--12-12-12-12-12-12-12-12-7-7-7-7-8-8-8-8----7-7-7-7-|
|--12-12-12-12-12-12-12-12-7-7-7-7--------------------|


|------------------------|
|------------------------|
|---------------------9b-|
|--0-----0-----0---------|
|--0-----0-----0------7b-|
|--0-----0-----0---------|

|---------------------------------------|
|---------------------------------------|
|---------------------------------------|
|--0-----0-----0------------------------|
|--0-----0-----0----------8-7---------7-|
|--0-----0-----0-----7-10-----10-7-10---|


|------------------------|
|------------------------|
|---------------------9b-|
|--0-----0-----0---------|
|--0-----0-----0------7b-|
|--0-----0-----0---------|


|----------------------|
|----------------------|
|----------------------|
|--0-----2-----3-----5-|
|--0-----2-----3-----5-|
|--0-----2-----3-----5-|

Solo.

|---------------------------------------------------|
|---------------------------------------------------|
|--14-10----10-14-10----10-14-10-----10-14-10----10-|
|--------12----------12-----------12----------12----|
|---------------------------------------------------|
|---------------------------------------------------|


|------------------------------------------|
|------------------------------------------|
|--12-9----9-12-9----9-12-9----9-12-9----9-|
|-------11--------11--------11--------11---|
|------------------------------------------|
|------------------------------------------|

|--------------------------------------------------|
|--15-12----12-15-12----12-15-12----12-15-12----12-|
|--------12----------12----------12----------12----|
|--------------------------------------------------|
|--------------------------------------------------|
|--------------------------------------------------|


|------------------------------------------|
|------------------------------------------|
|--12-9----9-12-9----9-12-9----9-12-9----9-|
|-------11--------11--------11--------11---|
|------------------------------------------|
|------------------------------------------|


|---------------------------|
|---------------------------|
|---10-------10--12--14--12-|
|---------------------------|
|---------------------------|
|---------------------------|


|-----------------------|
|--11-------------------|
|-----12-9------9-12-15-|
|----------11-8---------|
|-----------------------|
|-----------------------|

|-------------------------15-|
|------18---17----15-17-18---|
|--14------------------------|
|----------------------------|
|----------------------------|
|----------------------------|

|----------------------|
|--18----17--15--------|
|-------------------18-|
|----------------------|
|----------------------|
|----------------------|


|------------------------9-12-9----12-15-12----|
|--8-11-8---11-14-11------------11----------14-|
|---------9----------12------------------------|
|----------------------------------------------|
|----------------------------------------------|
|----------------------------------------------|


|--------------------------------------|
|------------------13-15-17-18-18---17-|
|----------12-14-15--------------------|
|--12-14-15----------------------------|
|--------------------------------------|
|--------------------------------------|

Chorus. x4

|------------------------------------------|
|------------------------------------------|
|------------------------------------------|
|--8-8-8-8-8-8-8-8-10-10-10-10-10-10-10-10-|
|--8-8-8-8-8-8-8-8-10-10-10-10-10-10-10-10-|
|--8-8-8-8-8-8-8-8-10-10-10-10-10-10-10-10-|


|-----------------------------------------------|
|-----------------------------------------------|
|-----------------------------------------------|
|--12-12-12-12-12-12-12-10-10-10-10-10-10-10-10-|
|--12-12-12-12-12-12-12-10-10-10-10-10-10-10-10-|
|--12-12-12-12-12-12-12-10-10-10-10-10-10-10-10-|


|------------------------------------------|
|------------------------------------------|
|------------------------------------------|
|--8-8-8-8-8-8-8-8-10-10-10-10-10-10-10-10-|
|--8-8-8-8-8-8-8-8-10-10-10-10-10-10-10-10-|
|--8-8-8-8-8-8-8-8-10-10-10-10-10-10-10-10-|


|-----------------------------------------------------|
|-----------------------------------------------------|
|---------------------------------10-10-10-10-9-9-9-9-|
|--12-12-12-12-12-1-212-12-7-7-7-7-x-x-x-x-x-x-x-x-x-x|
|--12-12-12-12-12-12-12-12-7-7-7-7-8-8-8-8----7-7-7-7-|
|--12-12-12-12-12-12-12-12-7-7-7-7--------------------|

Outro.

|-------------|    |-----|
|-------------|    |-----|
|-------------|    |-----|
|--0---0---0--| x4.|--0--|
|--0---0---0--|    |--0--|
|--0---0---0--|    |--0--|
Tap to rate this tab
 
# A B C D E F G H I J K L M N O P Q R S T U V W X Y Z