Song name
# A B C D E F G H I J K L M N O P Q R S T U V W X Y Z

Escape The Fate - Reverse This Curse tab

                          MATTHEWREVENGER's TAB

DROP C!!!


E----------------------------------------------------------------------------|
H----------------------------------------------------------------------------|
G---------------------------------------------------2-4--2-------------------|
D--7-8---4-5-7-8-4-7---4----9-0-4-5-----------------2-4--2--4444-5-0---------|
A--5-4---2-5-5-4-4-7---2----9-0-4-5--5-7--4-5--2----0-2--0--4444-5-0---------|
E----------5-----4-7--------9-0-4-5-------------------------4444-5-0---------|

E---------------------------------------------------------------------------|
H--------------12-14-15-12-10--12--101011121211-10-14-15--10------3---5-3---|
G-*7*-7-6-------------------------------------------------------------------|
D---------8-4--9-11-12--9--7--9--------------8---7-11-12--7---5-4--5-4----5-|
A---------------------------------------------------------------------------|
E---------------------------------------------------------------------------|


E----------------------------------------------------------------------------|
H----------------------------------------------------------------------------|
G----------------------------------------------------------------------------|
D---4-5-7-8-4-7--------------------------------------------------------------|
A---2-5-5-4-4-7--------------------------------------------------------------|
E-----5-----4-7--------------------------------------------------------------|

E-----------------------------------------------------------------------------|
H-----------------------------------------------------------------------------|
G-------7-9-1112--11--9----11-7--9--11-7--9---7--9-11--12--11-9---------------|
D----------------------------------------------------------------1212121212---|
A-------5-7-9-10---9--7----9--5--7---9-5--7---5--7--9--10--9--7---------------|
E-----------------------------------------------------------------------------|


E-----------------------------------------------------------------------------|
H-----------------------------------------------------------------------------|
G---------9-----------------7--9--11-9-----7-9-119-11-7-9-119--7-9-11-9-11----|
D-9-12-11---12---5--7-9-0-----------------------------------------------------|
A----------------5--7-9-0---5--7--9--7-----5-7-9-7-9--5-7-9-7--5-7-9--7-9-----|
E----------------5--7-9-0-----------------------------------------------------|

E----------------------------------------------------------------------------|
H----------------------------------------------------------------------------|
G----------------------------------------------------------------------------|
D--4-7-6-9-7-----------------------------------------------------------------|
A--2-5-4-7-5-----------------------------------------------------------------|
E----------------------------------------------------------------------------|



E----------------------------------------------------------------------------|
H--3----5---2--5-------------------------------------------------------------|
G----4---4---4--4------------------------------------------------------------|
D-----4---4---4--4-----------------------------------------------------------|
A----------------------------------------------------------------------------|
E----------------------------------------------------------------------------|



E----------------------------------------------------------------------------|
H----------------------------------------------------------------------------|
G----------------------------------------------------------------------------|
D----5-7-9-0-----------------------------------------------------------------|
A----5-7-9-0-----------------------------------------------------------------|
E----5-7-9-0-----------------------------------------------------------------|


E-------------------------------------------------------------------------------|
H-------------------------------------------------------------------------------|
G---7-9-11-9--7-9-11-9--11----7-9-11-14---791114--------------------------------|
D-------------------------------------------------------------------------------|
A---5-7-9--7--5-7-9--7--9-----5-7-9--12---579-12--------------------------------|
E-------------------------------------------------------------------------------|

E-------------------------------------------------------------------------|
H-------------------------------------------------------------------------|
G-------------7-9-11--12-11--9--------------------------------------------|
D---4-5-7-6-----------------------4----4-4--------77-8--------------------|
A---2-5-5-4---5-7-9---10--9--7----2--2------5-5-5----4------2-------------|
E-----5-----------------------------------5-------------4-7---------------|
Tap to rate this tab
# A B C D E F G H I J K L M N O P Q R S T U V W X Y Z