Song name
# A B C D E F G H I J K L M N O P Q R S T U V W X Y Z

Escape The Fate - Live Fast Die Beautiful tab

Escape The Fate - Live Fast, Die Beautiful
Ungrateful (2013)
Tabbed by Ryan Ryngaert
Drop C Tuning (C, G, C, F, A, D)

Intro (Capo 2nd fret with picking hand)
D-----------------------------------| x2
A-----------------------------------|
F-----------------------------------|
C-7h10p7p2h7p2h7h9p7p2h7p2h7h9p7p2p-|
G-----------------------------------|
C-----------------------------------|

D-------------------------------------| x1
A-------------------------------------|
F-------------------------------------|
C-9h12p9p2h9p2h9h10p9p2h9p2h9h10p9p2p-|
G-------------------------------------|
C-------------------------------------|

D-----------------------------------------| x1
A-----------------------------------------|
F-----------------------------------------|
C-10h14p10p2h10p2h10h12p9p2h9p2h9h10p9p2p-|
G-----------------------------------------|
C-----------------------------------------|

Verse
D-----------------------------------------------------------------| x4
A-----------------------------------------------------------------|
F-----------------------------------------------------------------|
C-----------------------------------------------------------------|
G-7-7-7-7-7-7-7-7-7-7-7-7-7-7-7-7-0-0-0-0-0-0-0-0-2-2-2-2-2-2-2-2-|
C-7-7-7-7-7-7-7-7-7-7-7-7-7-7-7-7-0-0-0-0-0-0-0-0-2-2-2-2-2-2-2-2-|

Pre-Chorus
D----------------------------|
A----------------------------|
F----------------------------|
C----------------------------|
G-3--3--3-3--5--5-5--5-5-5-5-|
C-3--3--3-3--5--5-5--5-5-5-5-|

D-5--5--5-5--8--8-8--8\7/8\7-|
A-8b-8b-8b8b-10b1010---------|
F--------------------5\4/5\4-|
C----------------------------|
G----------------------------|
C----------------------------|

Chorus
D-----------------------------------------------------------| x1
A-----------------------------------------------------------|
F-----------------------------------------------------------|
C-----------------------------------------------------------|
G-7--7--7-7--7--7-7--7-7-7-7--10--10--10-10--5--5-5-5-5-5-5-|
C-7--7--7-7--7--7-7--7-7-7-7--10--10--10-10--5--5-5-5-5-5-5-|

D-----------------------------------------------------------| x1
A-----------------------------------------------------------|
F-----------------------------------------------------------|
C-----------------------------------------------------------|
G-7--7--7-7--7--7-7--7-7-7-7--10--10--10-10--5--------------|
C-7--7--7-7--7--7-7--7-7-7-7--10--10--10-10--5--------------|

Pre-Verse
D-----------------------------------| x2
A-----------------------------------|
F-----------------------------------|
C-7h10p7p2h7p2h7h9p7p2h7p2h7h9p7p2p-|
G-----------------------------------|
C-----------------------------------|

D-------------------------------------| x1
A-------------------------------------|
F-------------------------------------|
C-9h12p9p2h9p2h9h10p9p2h9p2h9h10p9p2p-|
G-------------------------------------|
C-------------------------------------|

D-----------------------------------------| x1
A-----------------------------------------|
F-----------------------------------------|
C-10h14p10p2h10p2h10h12p9p2h9p2h9h10p9p2p-
G-----------------------------------------|
C-----------------------------------------|

Verse
D-----------------------------------------------------------------| x4
A-----------------------------------------------------------------|
F-----------------------------------------------------------------|
C-----------------------------------------------------------------|
G-7-7-7-7-7-7-7-7-7-7-7-7-7-7-7-7-0-0-0-0-0-0-0-0-2-2-2-2-2-2-2-2-|
C-7-7-7-7-7-7-7-7-7-7-7-7-7-7-7-7-0-0-0-0-0-0-0-0-2-2-2-2-2-2-2-2-|

Pre-Chorus
D----------------------------|
A----------------------------|
F----------------------------|
C----------------------------|
G-3--3--3-3--5--5-5--5-5-5-5-|
C-3--3--3-3--5--5-5--5-5-5-5-|

D-5--5--5-5--8--8-8--8\7/8\7-|
A-8b-8b-8b8b-10b1010---------|
F--------------------5\4/5\4-|
C----------------------------|
G----------------------------|
C----------------------------|

Chorus
D-----------------------------------------------------------| x1
A-----------------------------------------------------------|
F-----------------------------------------------------------|
C-----------------------------------------------------------|
G-7--7--7-7--7--7-7--7-7-7-7--10--10--10-10--5--5-5-5-5-5-5-|
C-7--7--7-7--7--7-7--7-7-7-7--10--10--10-10--5--5-5-5-5-5-5-|

D-----------------------------------------------------------| x1
A-----------------------------------------------------------|
F-----------------------------------------------------------|
C-----------------------------------------------------------|
G-7--7--7-7--7--7-7--7-7-7-7--10--10--10-10--5--------------|
C-7--7--7-7--7--7-7--7-7-7-7--10--10--10-10--5--------------|

Solo and Bridge/Breakdown
D-------------------------------------------------------| x2
A-------------------------------------------------------|
F-------------------------------------------------------|
C-------------------------------------------------------|
G-7--7--7-7--7--7-7--7-7-7-7--0--0--0-0--2--2-2-2-2-2-2-|
C-7--7--7-7--7--7-7--7-7-7-7--0--0--0-0--2--2-2-2-2-2-2-|

D---------12--17----------------8h10p8----------------8-8-10-|
A-10--13--15b-20b----------8-10--------10--------8-10--------|
F-12b-15b--------------7-9-------------------7-9-------------|
C-----------------7-10--------------------10-----------------|
G------------------------------------------------------------|
C------------------------------------------------------------|

D-12--10-------------------------------8-7-5-7-8-10-12-|
A--------13-12-10-12---5------5------------------------|
F----------------------7b-7p5-7b-7p5-------------------|
C------------------------------------7-----------------|
G------------------------------------------------------|
C------------------------------------------------------|

                                        Tremolo picking here
D-12--10-8----10-8---------8-10-12-17--|-8------8------12-10-8-10-8----|
A-15b------10------10-8-10-------------|---10-8---10-8--------------10-|
F--------------------------------------|-------------------------------|
C--------------------------------------|-------------------------------|
G--------------------------------------|-------------------------------|
C--------------------------------------|-------------------------------|

End of Solo (Tryin' to use my fame)
D-22b24-22-20-22b24--20--20-|
A---------------------------|
F---------------------------|
C---------------------------|
G---------------------------|
C---------------------------|

Repeat Chorus
END OF SONG!!!!
Tap to rate this tab
# A B C D E F G H I J K L M N O P Q R S T U V W X Y Z