Song name
# A B C D E F G H I J K L M N O P Q R S T U V W X Y Z

Escape The Fate - One For The Money tab

-------------------------------------------------------------------------------
                             Escape the Fate - One for the Money
-------------------------------------------------------------------------------
Tabbed by: bmh62695
E-mail: bmh62695@yahoo.com

Tuning: Drop C

e|---------------------------------------------------------------------------|
B|---------------------------------------------------------------------------|
G|---------------------------------------------------------------------------|
D|---------7---7-----------8---8---------------------------------------------|
A|----5--5---5---5----5--5---5---5----8--8-10-8-10----7--7-9-7-9-------------|
E|--0---------------0---------------8---------------7------------------------|

Intro then pm through verse
e|---------------------------------------------------------------------------|
B|---------10---10------------11---11---------6-8-6-8-6-------5-6-5-6-5------|
G|----7--7----7----7-----7--7----7----7----5---------------4-----------------|
D|---------------------------------------------------------------------------|
A|---------------------------------------------------------------------------|
E|--0------------------0-----------------0---------------0-------------------|

Chorus rhythm 
e|---------------------------------------------------------------------------|
B|---------------------------------------------------------------------------|
G|---------------------------------------------------------------------------|
D|--0-3-8-7------------------------------------------------------------------|
A|--0-3-8-7------------------------------------------------------------------|
E|--0-3-8-7------------------------------------------------------------------|





Chorus lead
e|---------------------------------------------------------------------------|
B|---------------------------------------------------------------------------|
G|--7--77s10-7-12-15-14---7--77s10-7-3---------------------------------------|
D|--x--xx-x--x--x--x--x---x--xx-x--x-x-7-------------------------------------|
A|--5--55s8--5-10-13-12---5--55s5--5-1-x--------------------------------------|
E|-------------------------------------7-------------------------------------|

Bridge fill
e|---------------------------------------------------------------------------|
B|---------------------------------------------------------------------------|
G|---------------------------------------------------------------------------|
D|---------------------------------------------------------------------------|
A|---------------------------------------------------------------------------|
E|--15-12-0-12-0-12-0-15-0-0-15--15-12-0-12-0-12-0-15-0-0-13-0-0-13----------|

solo
e|----------------------------------------------12-13------------------------|
B|--13--13-----------------------------------15-------11-10------------------|
G|--15b-15b----5-7-5+--5h7p5--------------------------------7+---------------|
D|-----------7---------------5+--12-11-10-8----------------------------------|
A|---------------------------------------------------------------------------|
E|---------------------------------------------------------------------------|

e|--------------------------------------------------------20-19-17-----------|
B|--18-17-15----------20-18-17----------22-20-18-22-20-18----------20-19-17--|
G|-----------17-16-14----------19-17-16--------------------------------------|
D|---------------------------------------------------------------------------|
A|---------------------------------------------------------------------------|
E|---------------------------------------------------------------------------|

e|--20b----------------------------------------------------------------------|
B|---------------------------------------------------------------------------|
G|---------------------------------------------------------------------------|
D|---------------------------------------------------------------------------|
A|---------------------------------------------------------------------------|
E|---------------------------------------------------------------------------|


************************************

| /   slide up
| \   slide down
| h   hammer-on
| p   pull-off
| ~   vibrato
| +   harmonic
| x   Mute note
| b   Bend
| pb  Pre-bend
| br  Bend release
| pbr Pre-bend release
| brb Bend release bend

************************************
Tap to rate this tab
# A B C D E F G H I J K L M N O P Q R S T U V W X Y Z