Song name
# A B C D E F G H I J K L M N O P Q R S T U V W X Y Z

Escape The Fate - Picture Perfect tab

I have do this in Standard.

Intro = 

E|------------------------------|
B|------------------------------|
G|----5------8------3------10---|(x2)
D|----5------8------3------10---|
A|----3------6------1------8----|
E|------------------------------|

Verse = 

Cm                  D#                 Bb         F
You lived your life like you were on fire, but how could I dance?
Cm              D#             Bb                F
When your soul just lifted me higher and higher and higher?
Cm         D#        Bb          F
Paint bleeds, ink runs, image of your love
G#            Bb
Your memory, our history

(Why did you have to go?)

Chorus =

E|------------------------------|
B|------------------------------|
G|----5------8------3------10---|(x3)
D|----5------8------3------10---|
A|----3------6------1------8----|
E|------------------------------|

E|----------------|
B|----------------|
G|-----------3----|
D|----6------3----|
A|----6------1----|
E|----4-----------|

Cm             D#
(For me to see how, how)
Bb             F
(For me to see how, ohhh)
Cm             D#
(For me to see how, how)
Bb             F
(For me to see how, ohhh)

Verse 2 =

Cm         D#             Bb            F
I lived my life hiding in shadows, but now I can see
Cm         D#              Bb            F
'Cause your soul is lifting me higher and higher and higher
Cm           D#              Bb          F
Paint bleeds, I can't breathe, need you here with me
G#             Bb
Close my eyes, I can feel you close

(Why did you have to go?)

Chorus = 

E|------------------------------|
B|------------------------------|
G|----5------8------3------10---|(x3)
D|----5------8------3------10---|
A|----3------6------1------8----|
E|------------------------------|

E|----------------|
B|----------------|
G|-----------3----|
D|----6------3----|
A|----6------1----|
E|----4-----------|

Solo = 


E|-----------------------------------------------6---------|
B|---------------------------6b------6-4-3b--------4-3-----|
G|-------5--5b--------5-3------------------------------3-3b|
D|---3-5------------------5--------------------------------|
A|---------------------------------------------------------|
E|---------------------------------------------------------|

E|---------------8-6---6b------6b------6b--6-----10b-------|
B|-----------6-8------------------------------8------------|
G|---------------------------------------------------------|
D|---------------------------------------------------------|
A|---------------------------------------------------------|
E|---------------------------------------------------------|

E|10-11-10--8----8----8b--------15----15-13-18--18b--------|
B|------------11-------------------------------------------|
G|---------------------------------------------------------|
D|---------------------------------------------------------|
A|---------------------------------------------------------|
E|---------------------------------------------------------|

E|-------10---10b----10-----8---8-10--10b----10b----10b----|
B|----------------------------8----------------------------|
G|---------------------------------------------------------|
D|---------------------------------------------------------|
A|---------------------------------------------------------|
E|---------------------------------------------------------|

E|-10b--10-8---10----10----10----11-13---------15------11-8|
B|---------------------------------------------------------|
G|---------------------------------------------------------|
D|---------------------------------------------------------|
A|---------------------------------------------------------|
E|---------------------------------------------------------|

E|--------11-13----15----15----15-13-11-13b----15-13-11----|
B|------------------------------------------------------15-|
G|---------------------------------------------------------|
D|---------------------------------------------------------|
A|---------------------------------------------------------|
E|---------------------------------------------------------|

E|------11-------------------------------------------------|
B|13-15-----15-13-11----11-13---13b~--------------13b------|
G|-------------------12------------------------------------|
D|---------------------------------------------------------|
A|---------------------------------------------------------|
E|---------------------------------------------------------|

Bridge = 

No Guitar.
 
Chorus =

E|------------------------------|
B|------------------------------|
G|----5------8------3------10---|(x3)
D|----5------8------3------10---|
A|----3------6------1------8----|
E|------------------------------|

E|----------------|
B|----------------|
G|-----------3----|
D|----6------3----|
A|----6------1----|
E|----4-----------|

Cm             D#
(For me to see how, how)
Bb             F
(For me to see how, live)
Cm             D#
(For me to see how, how)
Bb             F
(For me to see how, live)
Tap to rate this tab
# A B C D E F G H I J K L M N O P Q R S T U V W X Y Z