Song name
# A B C D E F G H I J K L M N O P Q R S T U V W X Y Z

Escape The Fate - Not Good Enough For Truth Or Cliche tab

I'm not 100% On the Intro 1 It's all weird Escape The Fate is an awesome band If you 
like this tab too bad I do :)
Tuning is just standard

Tabbed by Mitch Craig

Intro 1   All Palm Muted
|----------------------------------------------------|
|----------------------------------------------------|
|----------------------------------------------------|
|--4-8-8-6-4----4-8-8-6-4----4-8--8--6--4-----4-6-4--|
|-6---6-6-6-6--4---4-4-4-4------------------44-4-4---|
|---------------------------7---7--7--7--7-----------|
  xx xxxxxxxx  xx xxxxxxxx  xx xx xx xx xx  xxxxxxx


Intro 2
|---------------------------------------------------------|
|---------------------------------------------------------|
|-88x-88x-8/1010x-1010x-10\66x-66x-6/1111x-11\10\8\6/8\6--|
|-xxx-xxx-x-x-x-x-x-x-x-x--xxx-xxx-x-x-x-x-x--x--xx--x-x--|
|-66x-66x-6/8-8-x-8-8-x-8-\44x-44x-4/9-9-x-9-\8-\6\4/6\4--|
|---------------------------------------------------------|

Verse
|-----------------------------------|
|-7-7-7-7-7-7-7--9-9-9-9--6-6-6-6---|
|--6-6-6-6-6-6--6-6-6-6--6-6-6-6-6--|
|-----------------------------------|
|-----------------------------------|
|-----------------------------------|

Pre-Chorus
|------------------|
|------------------|
|------------------|
|---------3~~-4~~--|
|-4~~-4~~-1~~-2~~--|
|-2~~-1~~----------|

Chorus
|----------------------------------------------------------------------|
|----------------------------------------------------------------------|
|----------------------------------------------------------------------|
|-----------------------------------3333333333333333-4444444444444444--|
|-4444444444444444-4444444444444444-1111111111111111-2222222222222222--|
|-2222222222222222-1111111111111111------------------------------------|


Intro 2
|---------------------------------------------------------|
|---------------------------------------------------------|
|-88x-88x-8/1010x-1010x-10\66x-66x-6/1111x-11\10\8\6/8\6--|
|-xxx-xxx-x-x-x-x-x-x-x-x--xxx-xxx-x-x-x-x-x--x--xx--x-x--|
|-66x-66x-6/8-8-x-8-8-x-8-\44x-44x-4/9-9-x-9-\8-\6\4/6\4--|
|---------------------------------------------------------|

|----------------------------------|
|----------------------------------|
|-888-888-101010-101010------------|
|-xxx-xxx-x-x-x--x-x-x-------------|
|-666-666-8-8-8--8-8-8--8-6-4-4~~--|
|-----------------------6-4-2-1~~--|

Verse
|-----------------------------------|
|-7-7-7-7-7-7-7--9-9-9-9--6-6-6-6---|
|--6-6-6-6-6-6--6-6-6-6--6-6-6-6-6--|
|-----------------------------------|
|-----------------------------------|
|-----------------------------------|

Pre-Chorus
|------------------|
|------------------|
|------------------|
|---------3~~-4~~--|
|-4~~-4~~-1~~-2~~--|
|-2~~-1~~----------|

Chorus
|----------------------------------------------------------------------|
|----------------------------------------------------------------------|
|----------------------------------------------------------------------|
|-----------------------------------3333333333333333-4444444444444444--|
|-4444444444444444-4444444444444444-1111111111111111-2222222222222222--|
|-2222222222222222-1111111111111111------------------------------------|

Intro 2
|---------------------------------------------------------|
|---------------------------------------------------------|
|-88x-88x-8/1010x-1010x-10\66x-66x-6/1111x-11\10\8\6/8\6--|
|-xxx-xxx-x-x-x-x-x-x-x-x--xxx-xxx-x-x-x-x-x--x--xx--x-x--|
|-66x-66x-6/8-8-x-8-8-x-8-\44x-44x-4/9-9-x-9-\8-\6\4/6\4--|
|---------------------------------------------------------|

Intro 2
|--------------------------------------------------------------------------|
|--------------------------------------------------------------------------|
|-888-888-101010-101010-6666666666666666-11111111111111111111111111111111--|
|-xxx-xxx-x-x-x--x-x-x--xxxxxxxxxxxxxxxx-x-x-x-x-x-x-x-x-x-x-x-x-x-x-x-x---|
|-666-666-8-8-8--8-8-8--4444444444444444-9-9-9-9-9-9-9-9-9-9-9-9-9-9-9-9---|
|--------------------------------------------------------------------------|

Bridge pt 1
|-----------------------------------------|
|-----------------------------------------|
|------------------------------------10~--|
|------------------------------------x----|
|-44444444-66666666-8888888888888888-8~~--|
|-22222222-44444444-6666666666666666------|

|---------------------------------------------------------|
|---------------------------------------------------------|
|-88x-88x-8/1010x-1010x-10\66x-66x-6/1111x-11\10\8\6/8\6--| CLEAN
|-xxx-xxx-x-x-x-x-x-x-x-x--xxx-xxx-x-x-x-x-x--x--xx--x-x--|
|-66x-66x-6/8-8-x-8-8-x-8-\44x-44x-4/9-9-x-9-\8-\6\4/6\4--|
|---------------------------------------------------------|

|---------------------------------------------------------|
|---------------------------------------------------------|
|-88x-88x-8/1010x-1010x-10\66x-66x-6/1111x-11\10\8\6/8\6--|
|-xxx-xxx-x-x-x-x-x-x-x-x--xxx-xxx-x-x-x-x-x--x--xx--x-x--|Gain
|-66x-66x-6/8-8-x-8-8-x-8-\44x-44x-4/9-9-x-9-\8-\6\4/6\4--|
|---------------------------------------------------------|

Verse
|-----------------------------------|-------------|
|-7-7-7-7-7-7-7--9-9-9-9--6-6-6-6---|-9~~11~~~~~--|
|--6-6-6-6-6-6--6-6-6-6--6-6-6-6-6--|-------------|
|-----------------------------------|-------------|
|-----------------------------------|-------------|
|-----------------------------------|-------------|
Tap to rate this tab
# A B C D E F G H I J K L M N O P Q R S T U V W X Y Z