Song name
# A B C D E F G H I J K L M N O P Q R S T U V W X Y Z

Escape The Fate - As Youre Falling Down tab

----------------------------------------------------------------------------
	                                           As You're Falling Down  - Escape The Fate
----------------------------------------------------------------------------

Tabbeb By:Eric Hernandez
Email:Bfmv702@yahoo.com

Tuning:Drop C

[Intro]
D|------------------------------------------------------------------------|
A|------------------------------------------------------------------------|
F|--------------------------------------------------------------------8~--|
C|--------------------------------------------------------------------x---|
G|-5-5555-5-5555-6-3-5-5555-5-5555-6~-5-5555-5-5555-6-3-5-5555-5-5555-6~--|
C|-5-5555-5-5555-6-3-5-5555-5-5555-6~-5-5555-5-5555-6-3-5-5555-5-5555-----|

[Verse 1]
D|-----------------------------------------|
A|-----------------------------------------|
F|-----------------------------------------|
C|-7777------------1010--------------------| [x2]
G|-5555----8888----8888----10-8-7-5-7-5----|
C|---------8888------------10-8-7-5-7-5----|

D|-----------------------------------------|
A|-----------------------------------------|
F|--7--------------10----------------------|
C|--7(x15)-8-------10(x15)-10-----11-------| [x2]
G|--5------8(x15)--8-------10(x6)-11(x6)---|
C|---------8---------------10-----11-------|

D|----------------|
A|----------------|
F|----------------|
C|--10-8-7-5-7-5--| 
G|--10-8-7-5-7-5--|
C|--10-8-7-5-7-5--|

[Guitar 2]
D|-----------------------------------------------------------------|
A|--18----17----18----17--14--14--18----17----18----17--14--14--14-|
F|----1414--1414--1414--14--14------1414--1414--1414--14--14--14---|
C|-----------------------------------------------------------------| 
G|-----------------------------------------------------------------|
C|-----------------------------------------------------------------|

D|-----------------------------------------------------------------|
A|--13----13----13----13--13--13---11-10-8----8-7------------------|
F|----1313--1313--1313--13--13-------------10----------------------|
C|-----------------------------------------------------------------| 
G|-----------------------------------------------------------------|
C|-----------------------------------------------------------------|

[Chorus][Guitar 1]
D|------------------------------|
A|------------------------------|
F|----------------7-------------|
C|--3------7------7(x10-8-------| 
G|--3(x10)-7(x10)-5-----8(x10)--|
C|--3------7------------8-------|

[Guitar 2]
D|------------------------------|
A|------------------------------|
F|--14-----12-----10-----12-----|
C|--x(x10)-x(x10)-x(x10)-x(x10)-| 
G|--12-----10-----8------10-----|
C|------------------------------|

[Repeat Verse 1]

[Repeat Chorus]

[Bridge][Guitar 1]
D|---------------------|
A|---------------------|
F|---------------------|
C|--0~---0!---0~---0!--| 
G|--0~---0!---0~---0!--|
C|--0~---0!---0~---0!--|

[Guitar 2]
D|-------------------------------------|
A|-------------------------------------|
F|--14p0-14h15-0h12h14-010h12-8h9p8p0--|
C|-------------------------------------| 
G|-------------------------------------|
C|-------------------------------------|

[Guitar 1 Comes In]
D|-----------------------------------------------------------------|
A|--18----17----18----17--14--14--18----17----18----17--14--14--14-|
F|----1414--1414--1414--14--14------1414--1414--1414--14--14--14---|
C|-----------------------------------------------------------------| 
G|-----------------------------------------------------------------|
C|-----------------------------------------------------------------|

[Verse 1]
D|-----------------------------------------|
A|-----------------------------------------|
F|-----------------------------------------|
C|-7777------------1010--------------------| [x2]
G|-5555----8888----8888----10-8-7-5-7-5----|
C|---------8888------------10-8-7-5-7-5----|

[Repeat Chorus]
[x2]

[Outro][Guitar 1]
D|---------------------|
A|---------------------|
F|---------------------|
C|--0~---0!---0~---0!--| 
G|--0~---0!---0~---0!--|
C|--0~---0!---0~---0!--|

[Guitar 2]
D|-------------------------------------|
A|-------------------------------------|
F|--14p0-14h15-0h12h14-010h12-8h9p8p0--|
C|-------------------------------------| 
G|-------------------------------------|
C|-------------------------------------|

D|--------|
A|--------|
F|--7~\---|
C|--7~\---| 
G|--5~\---|
C|--------|


Tap to rate this tab
 
# A B C D E F G H I J K L M N O P Q R S T U V W X Y Z