Song name
# A B C D E F G H I J K L M N O P Q R S T U V W X Y Z

Escape The Fate - Chariot Of Fire tab

Help us improve GuitareTab! Take a short survey!
Band:Escape The Fate
Song:Chariot Of Fire
Tuning: EBGDAD  Drop D

Tabbed By:Mitch Craig





Intro
|--------------|------------------------------------|--------------------|
|--------------|------------------------------------|--------------------|
|-7~~~-77~~~-7-|-1010101010101010-9-9-9-9-9-9-9-9---|-7777777777777777\--|
|-7~~~-77~~~-7-|-1212121212121212-1212121212121212--|-xxxxxxxxxxxxxxxx---|
|-5~~~-55~~~-5-|------------------------------------|-5555555555555555\--|
|--------------|------------------------------------|--------------------|

Verse
|--------------------------------------------------------------------|
|--------------------------------------------------------------------|
|--------------------------------------------------------------------|
|-0~00000000000000-0-0-000000000-0--8~88888888888888-8-8-88888888-8--|
|-0~00000000000000-0-0-000000000-0--8~88888888888888-8-8-88888888-8--|
|-0~00000000000000-0-0-000000000-0--8~88888888888888-8-8-88888888-8--|
    ..............     .........      ..............     ........

|---------------------------------------------------------|
|---------------------------------------------------------|
|---------------10\9\7------------------10/141414-121212--|
|-8~8--88--8~8--x--x-x-12~12-1212-1010--x--x-x-x--x-x-x---|
|-8~8--88--8~8--8-\7\5-12~12-1212-1010--8-/121212-101010--|
|-8~8--88--8~8---------12~12-1212-1010--------------------|
       .                      .      
      

|---------------------------------------|
|---------------------------------------|
|---------------10\9\7------------------|
|-8~8--88--8~8--x--x-x-12~12-1212-1010--|
|-8~8--88--8~8--8-\7\5-12~12-1212-1010--|
|-8~8--88--8~8---------12~12-1212-1010--|

      .                      .      

|-------------------------------------------|
|-------------------------------------------|
|-------------------------------------------|
|-88888888888888888888888-1010101010101010--|
|-88888888888888888888888-1010101010101010--|
|-88888888888888888888888-1010101010101010--|

Chorus
|------------------------------------------------|
|------------------------------------------------|
|-14-12-10-9-14-17-14-17-14-12-10-9-12-14-15-17--|
|-x--x--x--x-x--x--x--x--x--x--x--x-x--x--x--x---|(Figure out strumming)
|-12-10-8--7-12-15-12-15-12-10-8--7-10-12-13-15--|
|------------------------------------------------|

Bridge
|-------------------------------------------------------------------------|
|-------------------------------------------------------------------------|
|---------------------------99999999----------------------------99999999--|
|-7~7-777-88888888-33333333-xxxxxxxx-77777777-88888888-33333333-xxxxxxxx--|
|-7~7-777-88888888-33333333-77777777-77777777-88888888-33333333-77777777--|
|-7~7-777-88888888-33333333----------77777777-88888888-33333333-----------|
      ...
   
|-------------------------|
|-------------------------|
|-------------------------|
|-7~~~~-3~~~~-7~~~~-3~~~~-|
|-7~~~~-3~~~~-7~~~~-3~~~~-|
|-7~~~~-3~~~~-7~~~~-3~~~~-|

|------------------------------------------------------------------------------------------------|
|------------------------------------------------------------------------------------------------|
|-1010101010101010-9-9-9-9-9-9-9-9--1212121212121212-9-9-9-9-9-9-9-9--99999999-1010101010101010--|
|-1212121212121212-1212121212121212-1212121212121212-1212121212121212-77777777-7-7-7-7-7-7-7-7---|
|------------------------------------------------------------------------------------------------|
|------------------------------------------------------------------------------------------------|
      
|-5~--------|
|-*---------|
|---7~------|
|---*---7~--|
|-------*---|
|-----------|

Build-up
|------------|-------------------|
|------------|-------------------|
|------------|-------------------|
|-8~8-88-8~8-|-10~10-1010-10~10--|
|-8~8-88-8~8-|-10~10-1010-10~10--|
|-8~8-88-8~8-|-10~10-1010-10~10--|
      .               .   

|-------|
|-------|
|-------|
|-3~~~--|
|-3~~~--|
|-3~~~--|

Chorus
|------------------------------------------------|
|------------------------------------------------|
|-14-12-10-9-14-17-14-17-14-12-10-9-12-14-15-17--|
|-x--x--x--x-x--x--x--x--x--x--x--x-x--x--x--x---|(Figure out strumming)
|-12-10-8--7-12-15-12-15-12-10-8--7-10-12-13-15--|
|------------------------------------------------|


|-------|
|-------|
|-------|
|-3~~~--|
|-3~~~--|
|-3~~~--|
Related for Chariot Of Fire tab