Guitaretab - guitar tabs
Song name
# A B C D E F G H I J K L M N O P Q R S T U V W X Y Z

Escape The Fate - Situtations tab

Tabbed by; Aesthitics
Dropped D
Escape The Fate - Situtations

obviously two guitars the parts with onli one riff over the time noted is both guitars 
parts with two; well choose which one you want to do...

Intro - 0:00 - 0:10
e]-------------------------[
b]-------------------------[
G]-------------------------[
D]-1010--99--9-9-66--55--9-[
A]-1010--99--9-9-66--55--9-[
D]-1010--99--9-9-66--55--9-[
pm          .

Verse - 0:11 - 0:30
e]-----------------------------------------------------------------------[
b]-----------------------------------------------------------------------[
G]------------------------------------------------------------------(x2)-[
D]-5555555555555555-4444444444444444---------------------------44444444--[
A]-3333333333333333-2222222222222222-6666666666666666-55555555-22222222--[
D]-----------------------------------6666666666666666-55555555-----------[
pm................ ................ ................ ........ ........

Verse - 0:20 - 0:30
e]--------------------------|------------------------------------------[
b]--------------------------|------------------------------------------[
G]---55---77---88---77------|---55----77---888877---55---77---88887777-[
D]---------------------(x2)-|------------------------------------------[
A]-33---55---55---55--------|-33---55---55--------33---55---55---------[
D]--------------------------|------------------------------------------[
pm ..   ..   ..   ..          ..   ..   ..        ..   ..   ..

Pre-Chorus - 0:30 - 0:40--------------------------[
e]------------------------------------------------[
b]------------------------------------------------[
G]------------------------------------------------[
D]-3-3-3-3--5-5-5-5--6-6-6-6--88888888-88--99-----[
A]-3-3-3-3--5-5-5-5--6-6-6-6--88888888-88--99-----[
D]-3-3-3-3--5-5-5-5--6-6-6-6--88888888-88--99-----[
pm                                     .   .

Chorus - 0:40 - 0:58
e]-------------------------------------------------------------------[
b]--------------------------------------------------------------(x2)-[
G]-5----10-----8-----4-----8-----7----10----12----10----12-----8-----[
D]-x(x8)-x(x8)-x(x8)-x(x4)-x(x4)-x(x8)-x(x4)-x(x4)-x(x8)-x(x4)-x(x4)-[
A]-3-----8-----6-----2-----6-----5-----8----10-----8----10-----6-----[
D]-------------------------------------------------------------------[

Verse - 0:59 - 1:17
|-------------------------------------------------------------|
|-------------------------------------------------------------|
|-------------------------------------------------------------|
|-1010---4444444444444444---------------------------44444444--|
|-1010---2222222222222222-6666666666666666-55555555-22222222--|
|-------------------------6666666666666666-55555555-----------|
pm       ................ ................ ........ ........

Verse - 1:08 - 1:17
e]--------------------------|------------------------------------------[
b]--------------------------|------------------------------------------[
G]---55---77---88---77------|---55----77---888877---55---77---88887777-[
D]---------------------(x2)-|------------------------------------------[
A]-33---55---55---55--------|-33---55---55--------33---55---55---------[
D]--------------------------|------------------------------------------[
pm ..   ..   ..   ..          ..   ..   ..        ..   ..   ..
[ Tab from: http://www.guitaretab.com/e/escape-the-fate/76289.html ]
Pre-Chorus - 1:18 - 1:27--------------------------[
e]------------------------------------------------[
b]------------------------------------------------[
G]------------------------------------------------[
D]-3-3-3-3--5-5-5-5--6-6-6-6--88888888-88--99-----[
A]-3-3-3-3--5-5-5-5--6-6-6-6--88888888-88--99-----[
D]-3-3-3-3--5-5-5-5--6-6-6-6--88888888-88--99-----[
pm                                     .   .


Chorus - 1:28 - 1:46
e]-------------------------------------------------------------------[
b]--------------------------------------------------------------(x2)-[
G]-5----10-----8-----4-----8-----7----10----12----10----12-----8-----[
D]-x(x8)-x(x8)-x(x8)-x(x4)-x(x4)-x(x8)-x(x4)-x(x4)-x(x8)-x(x4)-x(x4)-[
A]-3-----8-----6-----2-----6-----5-----8----10-----8----10-----6-----[
D]-------------------------------------------------------------------[

Chorus Overlay - 1:44 - 1:46
e]-------------[
b]-------------[
G]-------------[
D]-17-13-15-12-[
A]-------------[
D]-------------[

Bride - 1:46 - 2:04
e]-----------------------------------|
b]-----------------------------------|
G]-12121212-5555555-1010101010101010-|
D]-x-x-x-x--xxxxxxx-x-x-x-x-x-x-x-x--|
A]-10101010-3333333-8-8-8-8-8-8-8-8--|
D]-----------------------------------|

e]-----------------------------------------------------------------------|
b]-----------------------------------------------------------------------|
G]-----------------------------------------------------------------------|
D]-3333333333333333-5555555555555555-6666666666666666-88888888888888888--|
A]-3333333333333333-5555555555555555-6666666666666666-88888888888888888--|
D]-3333333333333333-5555555555555555-6666666666666666-88888888888888888--|

e]------------------------------------|
b]------------------------------------|
G]------------------------------------|
D]-3333333333333333-5555555555555555--|
A]-3333333333333333-5555555555555555--|
D]-3333333333333333-5555555555555555--|

Verse - 2:05 - 2:17
e]------------------------------------------------------|
b]------------------------------------------------------|
G]------------------------------------------------------|
D]-5555555555555555-4444444444444444------------------5-|
A]-3333333333333333-2222222222222222-6666666666666666-5-|
D]-----------------------------------6666666666666666-5-|
pm ................ ................ ................

Chorus - 2:17 -2:
e]-------------------------------------------------------------------[
b]--------------------------------------------------------------(x2)-[
G]-5----10-----8-----4-----8-----7----10----12----10----12-----8-----[
D]-x(x8)-x(x8)-x(x8)-x(x4)-x(x4)-x(x8)-x(x4)-x(x4)-x(x8)-x(x4)-x(x4)-[
A]-3-----8-----6-----2-----6-----5-----8----10-----8----10-----6-----[
D]-------------------------------------------------------------------[

Chorus Overlay - 2:36 - 3:05
e]-------151815----------151815----------121312----------121312-----[
b]-----15------15------15------15------13------13------13------13---[
G]---15----------15--15----------15--14----------14--14----------14-[
D]-17--------------17--------------15--------------15----------(x3)-[
A]------------------------------------------------------------------[
D]------------------------------------------------------------------[

e]-------151815----------151815----------121312---------------------[
b]-----15------15------15------15------13------13-------------------[
G]---15----------15--15----------15--14----------14---17-13-15-12---[
D]-17--------------17--------------15-------------------------------[
A]------------------------------------------------------------------[
D]------------------------------------------------------------------[


I only say this tab is "advanced" because of the sweeping in the last chorus, that takes 
the rest is quite easy
Related for Situtations tab
Advertisement will be closed in 10 seconds