Song name
# A B C D E F G H I J K L M N O P Q R S T U V W X Y Z

Escape The Fate - Webs We Weave tab

Artist: Escape The Fate
Song: "The Webs We Weave"
Album: Dying Is Your Latest Fashion
Tuning: Dropped C
Date: April 2. '07


The lead breakdown guitar may be off, but the rythem guitar is good. Please Rate my tab =D. Thanks.

Intro.
D|--------------------------------------------------------| \
A|--------------------------------------------------------| |
F|-----1212121212111111111212------1616161616141414141616-| |
C|x2-2-x-x-x-x-x-x-x-x-x-x-x--x2-2-x-x-x-x-x-x-x-x-x-x-x--| |
G|x2-2-10101010109-9-9-9-1010-x2-2-1414141414121212121414-| |
C|x2-2------------------------x2-2------------------------| |
                                                             x2
D|----------------------------------------------------|     |
A|----------------------7h8p7-------------------------|     |
F|12-1212-12121211-1111------9-12-1212-1214X11-1111xxx|     |
C|x--x-x--x-x-x-x--x-x---------x--x-x--x-x-Xx--x-x-xxx|     |
G|10-1010-1010109--9-9---------10-1010-1010X9--9-9-xxx|     |
C|-------------------------------------------------xxx|     /

Verse:
D|-----------------------5555------------------------------------------|
A|----5555-7777-888-----------8888-777------5555-7777-888--------------|
F|---------------------------------------------------------------------|
C|2-2---------------x2-2---------------x5-5---------------x5-5xxx4-4xxx| x2
G|2-2---------------x2-2---------------x3-3---------------x5-5xxx4-4xxx|
C|2-2---------------x2-2---------------x------------------x5-5xxx4-4xxx|

Pre-Chorus:
D|------------------------------------------------------------------|
A|------------------------------------------------------------------|
F|9-99-999-999-99911-1111-111111-111111-111211-9-99-999-999-9998----|
C|x-xx-xxx-xxx-xxxx--x-x--x-x-x--x-x-x--x-x-x--x-xx-xxx-xxx-xxxx-5-4|
G|7-77-777-777-7779--9-9--9-9-9--9-9-9--9-10-9-7-77-777-777-7776-5-4|
C|---------------------------------------------------------------5-4|

Chorus:
D|--------------------------------------------------------| \
A|--------------------------------------------------------| |
F|-----1212121212111111111212------1616161616141414141616-| |
C|x2-2-x-x-x-x-x-x-x-x-x-x-x--x2-2-x-x-x-x-x-x-x-x-x-x-x--| |
G|x2-2-10101010109-9-9-9-1010-x2-2-1414141414121212121414-| |
C|x2-2------------------------x2-2------------------------| |
                                                             x2
D|----------------------------------------------------|     |
A|----------------------7h8p7-------------------------|     |
F|12-1212-12121211-1111------9-12-1212-1214X11-1111xxx|     |
C|x--x-x--x-x-x-x--x-x---------x--x-x--x-x-Xx--x-x-xxx|     |
G|10-1010-1010109--9-9---------10-1010-1010X9--9-9-xxx|     |
C|-------------------------------------------------xxx|     /

Crazy Tapping Part(trust me, it's a tapping jig):
D|-------------|
A|-------------|
F|-------------|
C|2-2------x2-2|
G|2-2------x2-2|
C|2-2------x2-2|

THEN DO:
Verse x2
Pre-Chorus
Chorus x2

Breakdown bridgey thing:
D|---------------------------------------------------------------|
A|---------------------------------------------------------------|
F|---------------------------------------------------------------|
C|555555555555555-777777777777777-999999999999999-999999999999999| x4
G|333333333333333-555555555555555-777777777777777-777777777777777|
C|---------------------------------------------------------------|

			OR!!!!!!

(i don't think this is right, but it sounds close enough)
D|---------------------------------|-------------------------------|
A|0-8-0-12-0-8-0-10-0-8-0-12-0----0|0-8-0-12-0-8-0-10-0-8-10-0----0|
F|-----------------------------11--|---------------------------11--| x8
C|---------------------------------|-------------------------------| 
G|---------------------------------|-------------------------------|
C|---------------------------------|-------------------------------|

D|---------------------|----------------------------------------------------|
A|---------------------|----------------------7h8p7-------------------------|
F|---------------------|12-1212-12121211-1111------9-12-1212-1214X11-1111xxx|
C|2-2------x2-2-------0|x--x-x--x-x-x-x--x-x---------x--x-x--x-x-Xx--x-x-xxx|
G|2-2------x2-2-------0|10-1010-1010109--9-9---------10-1010-1010X9--9-9-xxx|
C|2-2------x2-2-------0|-------------------------------------------------xxx|

Final Chorus:
D|--------------------------------------------------------| 
A|--------------------------------------------------------| 
F|-----1212121212111111111212------1616161616141414141616-| 
C|x2-2-x-x-x-x-x-x-x-x-x-x-x--x2-2-x-x-x-x-x-x-x-x-x-x-x--| 
G|x2-2-10101010109-9-9-9-1010-x2-2-1414141414121212121414-|
C|x2-2------------------------x2-2------------------------| 
                                                            
D|----------------------------------------------------|     
A|----------------------7h8p7-------------------------|     
F|12-1212-12121211-1111------9-12-1212-1214X11-1111xxx|    
C|x--x-x--x-x-x-x--x-x---------x--x-x--x-x-Xx--x-x-xxx|     
G|10-1010-1010109--9-9---------10-1010-1010X9--9-9-xxx|    
C|-------------------------------------------------xxx|    

End:
D|--------|
A|--------|
F|--------|
C|2-2-0---|
G|2-2-0---|
C|2-2-0-2~|
Tap to rate this tab
# A B C D E F G H I J K L M N O P Q R S T U V W X Y Z