Song name
# A B C D E F G H I J K L M N O P Q R S T U V W X Y Z

Escape The Fate - Cellar Door tab

----------------------------------------------------------------------------
			Cellar Door  - Escape The Fate
----------------------------------------------------------------------------

Tabbed By:Eric Hernandez
Email:Bfmv702@yahoo.com

Tuning:Drop C


[Intro][Verse][Clean]
D|-----------------------|    |----------------------|
A|------8----8----8------|    |------5/6-----6-5-----|
F|--------11---11---11~--|    |-----------11---------|
C|-----------------------|[x2]|----------------------|[x2] 
G|--5/7------------------|    |--3/5-----------------|
C|-----------------------|    |----------------------|

[Pre-Chorus][Guitar 1]
D|----------------------------------------------------------|
A|----------------------------------------------------------|
F|----------------------------------------------------------|
C|--55555-55555-44444-44444-55555-55555-77777-77777---------| 
G|--33333-33333-22222-22222-33333-33333-55555-55555---------|
C|----------------------------------------------------------|

[Guitar 2]
D|--------15-15-14-14-17-17--|
A|--17-17--------------------|
F|---------------------------|
C|---------------------------|[x3]
G|---------------------------|
C|---------------------------|

D|--------15-15-14-14-17-17-17-17-17-17-17-17b19--|
A|--17-17-----------------------------------------|
F|------------------------------------------------|
C|------------------------------------------------| 
G|------------------------------------------------|
C|------------------------------------------------|

[Chorus]
D|-----------------------------------|
A|-----------------------------------|
F|-----------------------------------|
C|-7777777777777777-3333333333333333-|
G|-5555555555555555-1111111111111111-|
C|-----------------------------------|

D|-------------------------------------|
A|-------------------------------------|
F|-------------------------------------|
C|-4444444444444444-77777777-88888888--|[x2] 
G|-2222222222222222-55555555-66666666--|
C|-------------------------------------|

D|-----|
A|-----|
F|-----|
C|-7~--| 
G|-5~--|
C|-----|

[Repeat Verse]

[Repeat Pre-Chorus]

[Repeat Chorus]

[Bridge][Guitar 1]
D|---------------|
A|---------------|
F|--------9------|
C|--5-----9(x8)--|[x4] 
G|--5(x8)-7------|
C|--5------------|

[Guitar 2]
D|--15-15-14-14-------14-14-14-17-17-17-17-17--|
A|--------------15~----------------------------|
F|---------------------------------------------|
C|---------------------------------------------|[x5] 
G|---------------------------------------------|
C|---------------------------------------------|

[Repeat Chorus]

[Tremelo Picking]
D|------------------|
A|------------------|
F|-----------12-14--|
C|--12-14-15--------|[x4] 
G|------------------|
C|------------------|

D|------------------|
A|------------------|
F|--------12-13-----|
C|--14-15-----------| 
G|------------------|
C|------------------|


Tap to rate this tab
# A B C D E F G H I J K L M N O P Q R S T U V W X Y Z