Song name
# A B C D E F G H I J K L M N O P Q R S T U V W X Y Z

Escaryum - Passage tab

#----------------------------------PLEASE NOTE---------------------------------#
#This file is the author's own work and represents their interpretation of the #
#song. You may only use this file for private study, scholarship, or research. #
#------------------------------------------------------------------------------##
From: syk@nyongwa.montreal.qc.ca (Bruno Lamoureux)

Titre:         Passage
Groupe:        Escaryum
Album:
Ecrit Par:     Escaryum\M. Gosselin
Transcrit Par: B. Lamoureux
----------------------------------------------------------------------

main riff:
|------------------------------------------------------------------------|
|------------------------------------------------------------------------|
|------------------------------------------------------------------------|
|------------------------------------------------------------------------|
|------2-4-2-------------------------------------------------------------|
|-4-2-4-----4-2--4-2-4-5-4-2-0-------------------------------------------|

|------------------------------------------------------------------------|
|------------------------------------------------------------------------|
|-------7--------5---------------5---------------------------------------|
|-7\5/7-7--5\4/5-5--7\5/7--5-4-2-5---------------------------------------|
|-7\5/7-5--5\4/5-3--7\5/7--5-4-2-3---------------------------------------|
|-5\3/5----3\2/3----5\3/5--3-2-0-----------------------------------------|


Ce fichier a t cre par Tab 1.1

--PART.BOUNDARY.902.4305.nyongwa.montreal.qc.ca.784582360.1--
Tap to rate this tab
# A B C D E F G H I J K L M N O P Q R S T U V W X Y Z