Song name
# A B C D E F G H I J K L M N O P Q R S T U V W X Y Z

Eskimo Joe - Election tab

Highlighted       Show chord diagrams
Artist: Eskimo Joe
Song: Election
Album:  Girl (released in 2000)

Verse
~~~~~
      G    A    Em   C  FF#
E: |------------------------|
B: |-----------------5------|
G: |--4----6----0----5--23--|
D: |--5----7----2----5--34--|
A: |--5----7----2----3--34--|
E: |--3----5----0-------12--|

Bridge
~~~~~~
      G    A    A#   G#
E: |--------------------|
B: |--------------------|
G: |--4----6----7----5--| x 2
D: |--5----7----8----6--|
A: |--5----7----8----6--|
E: |--3----5----6----4--|

Chorus (Distortion)
~~~~~~
      G    A    Em   C  FF#
E: |------------------------|
B: |-----------------5------|
G: |--4----6----0----5--23--| x 2
D: |--5----7----2----5--34--|
A: |--5----7----2----3--34--|
E: |--3----5----0-------12--|

Verse
~~~~~
      G    A    Em   C  FF#
E: |------------------------|
B: |-----------------5------|
G: |--4----6----0----5--23--| x 2
D: |--5----7----2----5--34--|
A: |--5----7----2----3--34--|
E: |--3----5----0-------12--|

Bridge
~~~~~~
      G    A    A#   G#
E: |--------------------|
B: |--------------------|
G: |--4----6----7----5--|
D: |--5----7----8----6--|
A: |--5----7----8----6--|
E: |--3----5----6----4--|


Chorus (Distortion)
~~~~~~
      G    A    Em   C  FF#
E: |------------------------|
B: |-----------------5------|
G: |--4----6----0----5--23--| x 4
D: |--5----7----2----5--34--|
A: |--5----7----2----3--34--|
E: |--3----5----0-------12--|

Outro
~~~~~
      G    A    Em   C  FF#   G
E: |-----------------------------|
B: |-----------------5-----------|
G: |--4----6----0----5--23----4--|
D: |--5----7----2----5--34----5--|
A: |--5----7----2----3--34----5--|
E: |--3----5----0-------12----3--|

Tap to rate this tab
# A B C D E F G H I J K L M N O P Q R S T U V W X Y Z