Song name
# A B C D E F G H I J K L M N O P Q R S T U V W X Y Z

Eskimo Joe - Head Hurts tab

Eskimo Joe - Head Hurts

Album - Girl

Order:
   Intro
   Verse x 2
   Bridge
   Verse
   Bridge
   Outro

Intro
~~~~~
E: |----------------------|
B: |----------------------|
G: |----------------------| x 4
D: |----------------------|
A: |----------------------|
E: |--0----5h7-5/-10--10--|

Verse
~~~~~
E: |----------------------|
B: |----------------------|
G: |----------------------| x 4
D: |----------------------|
A: |----------------------|
E: |--0----5h7-5/-10--10--|

E: |------------|
B: |------------|
G: |------------| x 2
D: |------------|
A: |------5-2---|
E: |--3-2-------|

E: |----------------------|
B: |----------------------|
G: |----------------------| x 4
D: |----------------------|
A: |----------------------|
E: |--0----5h7-5/-10--10--|

Bridge
~~~~~~
      B     E     B     E
E: |---------------------------|
B: |----7-----9-----7-----9----|
G: |-----8-----9-----8-----9---| x 2
D: |--9---9-9---9-9---9-9---9--|
A: |---------------------------|
E: |---------------------------|

      A
E: |--5------------------------|
B: |--5------------------------|
G: |--6------------------------|
D: |--7------------------------|
A: |--7------------------------|
E: |--5------------------------|

      B     E     B     E
E: |---------------------------|
B: |----7-----9-----7-----9----|
G: |-----8-----9-----8-----9---|
D: |--9---9-9---9-9---9-9---9--|
A: |---------------------------|
E: |---------------------------|

Outro
~~~~~
E: |----------------------|
B: |----------------------|
G: |----------------------| x 10
D: |----------------------|
A: |----------------------|
E: |--0----5h7-5/-10--10--|

E: |------------|
B: |------------|
G: |------------| x 2
D: |------------|
A: |------5-2---|
E: |--3-2-------|

E: |----------------------|
B: |----------------------|
G: |----------------------| x 2
D: |----------------------|
A: |----------------------|
E: |--0----5h7-5/-10--10--|

E: |------------|
B: |------------|
G: |------------| x 2
D: |------------|
A: |------5-2---|
E: |--3-2-------|

E: |----------------------|
B: |----------------------|
G: |----------------------| x 2 (End on open E)
D: |----------------------|
A: |----------------------|
E: |--0----5h7-5/-10--10--|


Tap to rate this tab
# A B C D E F G H I J K L M N O P Q R S T U V W X Y Z