Song name
# A B C D E F G H I J K L M N O P Q R S T U V W X Y Z

Eskimo Joe - Sydney Song tab

Eskimo Joe - Sydney Song

Album - Girl

Intro
~~~~~
     F#   D    B
E: |---------------|
B: |-11------------|
G: |-11---11---8---| x 2
D: |-11---12---9---|
A: |-9----12---9---|
E: |------10---7---|

Verse
~~~~~
      F#   D
E: |----------|
B: |--11------|
G: |--11---11-| x 2
D: |--11---12-|
A: |--9----12-|
E: |-------10-|

Pre-Chorus
~~~~~~~~~~
      B    D    B    D
E: |--------------------|
B: |-------7------------|
G: |--8----7----8----11-| x 2
D: |--9----7----9----12-|
A: |--9----5----9----12-|
E: |--7---------7----10-|

Chorus
~~~~~~
      F#
E: |-----------------------------------------------------|
B: |------11-----------11-----------11-------------------|
G: |----------11-----------11-----------11-----------11--|
D: |---------------------------------------------11------|
A: |--9------------9------------9------------9-----------|
E: |-----------------------------------------------------|

      D
E: |-----------------------------------------------------|
B: |------10-----------10-----------10-------------------|
G: |----------11-----------11-----------11-----------11--| x 2
D: |---------------------------------------------12------|
A: |--12-----------12-----------12-----------12----------|
E: |-----------------------------------------------------|

Verse
~~~~~
      F#   D
E: |----------|
B: |--11------|
G: |--11---11-| x 2
D: |--11---12-|
A: |--9----12-|
E: |-------10-|

Pre-Chorus
~~~~~~~~~~
      B    D    B    D
E: |--------------------|
B: |-------7------------|
G: |--8----7----8----11-| x 2
D: |--9----7----9----12-|
A: |--9----5----9----12-|
E: |--7---------7----10-|

Chorus
~~~~~~
      F#
E: |-----------------------------------------------------|
B: |------11-----------11-----------11-------------------|
G: |----------11-----------11-----------11-----------11--|
D: |---------------------------------------------11------|
A: |--9------------9------------9------------9-----------|
E: |-----------------------------------------------------|

      D
E: |-----------------------------------------------------|
B: |------10-----------10-----------10-------------------|
G: |----------11-----------11-----------11-----------11--| x 4
D: |---------------------------------------------12------|
A: |--12-----------12-----------12-----------12----------|
E: |-----------------------------------------------------|

Intro
~~~~~
     F#   D    B
E: |---------------|
B: |-11------------|
G: |-11---11---8---| x 3
D: |-11---12---9---|
A: |-9----12---9---|
E: |------10---7---|

Verse
~~~~~
      F#   D
E: |----------|
B: |--11------|
G: |--11---11-| x 2
D: |--11---12-|
A: |--9----12-|
E: |-------10-|

Chorus
~~~~~~
      F#
E: |-----------------------------------------------------|
B: |------11-----------11-----------11-------------------|
G: |----------11-----------11-----------11-----------11--|
D: |---------------------------------------------11------|
A: |--9------------9------------9------------9-----------|
E: |-----------------------------------------------------|

      D
E: |-----------------------------------------------------|
B: |------10-----------10-----------10-------------------|
G: |----------11-----------11-----------11-----------11--| x 10
D: |---------------------------------------------12------|
A: |--12-----------12-----------12-----------12----------|
E: |-----------------------------------------------------|

Tap to rate this tab
# A B C D E F G H I J K L M N O P Q R S T U V W X Y Z