Guitaretab - guitar tabs
Song name
# A B C D E F G H I J K L M N O P Q R S T U V W X Y Z

Eskimo Joe - Wake Up tab

Eskimo Joe-Wake Up

Album - Girl

Tuning: Standard

Intro

e  ----------------------------------------------------|
b  ----7---7---7---7---7---7----etc--------------------|
g  --7---7---7---7---7---7---7-------------------------|
d  ----------------------------------------------------|
a  ----------------------------------------------------|
E  ----------------------------------------------------|

Then Change

e  ----------------------------------------------------|
b  ----3---3---3------5---5---5------------------------|
g  --3---3---3---3--5---5---5---5----------------------|
d  ----------------------------------------------------|
a  ----------------------------------------------------|
E  ----------------------------------------------------|

Verse

"There Is One Thing That.."

e  --------10-----10----------------------------|
b  ----7------7------7--------------------------|
g  --7---7------7------7------------------------|
d  ---------------------------------------------|
a  ---------------------------------------------|
E  ---------------------------------------------|

Pre-Chorus (Chorus)

"Let Me Show You What.."

e  ---------------------------------------------|
b  ---------------------------------------------|
g  ---------------------------------------------|
d  --7-----5------------------------------------|
a  --5--5--3------------------------------------|
E  -----3---------------------------------------|

e  ---------------------------------------------|
b  ---------------------------------------------|
g  --5b-----------------------------------------|
d  --x-----slowly bend up notes-----------------|
a  --3b-----------------------------------------|
E  ---------------------------------------------|

Chorus

"When I Wake Up.."

Rhythm Guitar
[ Tab from: http://www.guitaretab.com/e/eskimo-joe/124725.html ]
e  ---------------------------------------------|
b  ---------------------------------------------|
g  ---------------------------------------------|
d  --7------------------------------------------|
a  --5--9---------------------------------------|
E  -----7---------------------------------------|

Lead Guitar

e  -----------------------------------------------|
b  --7-------------7----------7---------7---------|
g  ------9---7--------9----7------9----------9----|
d  -----------------------------------------------|
a  -----------------------------------------------|
E  -----------------------------------------------|

"You Look So Good.."

e  ---------------------------------------------|
b  ---------------------------------------------|
g  ---------------------------------------------|
d  --7--5---------------------------------------|
a  --5--3--7------------------------------------|
E  --------5------------------------------------|

Rhythm Guitar

"To Me.."

e  ---------------------------------------------|
b  ---------------------------------------------|
g  ---------------------------------------------|
d  --7------------------------------------------|
a  --5------------------------------------------|
E  ---------------------------------------------|

Lead Guitar

e  ---------------------------------------------|
b  -------7-------7-----------------------------|
g  ----9-------9--------------------------------|
d  --7-------7----------------------------------|
a  ---------------------------------------------|
E  ---------------------------------------------|

Solo

e  -------------------------------------------------------|
b  -------------------------------------------------------|
g  --/11-----/11---------------------------9-10-11--------|
d  ------12------12---9h11-11h12-11h12--12---------12-12--|
a  -------------------------------------------------------|
E  -------------------------------------------------------|

Related for Wake Up tab
×
Wake Up