Song name
# A B C D E F G H I J K L M N O P Q R S T U V W X Y Z

Eskimo Joe - Sarah tab

Song : Sarah
Artist : Eskimo Joe
Album : Black Fingernails, Red Wine
Words and music by Eskimo Joe
Tab written by : Jason Huynh

My first ever tab, enjoy. :)
Oh, if you think there are any errors, please add me or email me at xSniperZ@gamingaddix.com
Cheers.

Guitar 1                                                      \
    ---------------------------------------------------------- |
    ---------------------------------------------------------- |
    ---------------------------------------------------------- | Repeat
    -----------------------------------------------6-6-4-4---- |
    -7-7-7-7-7-6-4-6-------------------4-4-6-6-4-----------6-- |
    -----------------7-7-7-4-4-4-7-4-7-7--------4-4----------- |
                                                              /

Guitar 2
------------------------------------|
------------------------------------|
------------------------------------|
-6~~~~~-----------------------------|
-8~~~~~-----------------------------|
-7~~~~~-----------------------------|
Palm mute                           At the end of the intro, pickscrape.


Guitar 1
------------------------------------|
------------------------------------|
-9-9-9-9-9-9-9-9--------------------|
-9-9-9-9-9-9-9-9--------------------|
-7-7-7-7-7-7-7-7--------------------|
------------------------------------|

Guitar 2
------------------------------------|
------------------------------------|
------------------------------------|
-2-2-2-2-2-2-2-2--------------------|
-2-2-2-2-2-2-2-2--------------------|
-0-0-0-0-0-0-0-0--------------------|


Guitar 1 DOES NOTHING! Whooooo

Guitar 2  - Continue palm muted intro But slide down one fret When he sings "by the flowers"

Guitar 1

Guitar 1
------------------------------------|
------------------------------------|
-9-9-9-9-9-9-9-9--------------------|
-9-9-9-9-9-9-9-9--------------------|
-7-7-7-7-7-7-7-7--------------------|
------------------------------------|

Guitar 2
------------------------------------|
------------------------------------|
------------------------------------|
-2-2-2-2-2-2-2-2--------------------|
-2-2-2-2-2-2-2-2--------------------|
-0-0-0-0-0-0-0-0--------------------|

Guitar 1 Again, Does nothing.

Guitar 2 Palm Mute

----------------------CHORUS START--------------------------------------
Both Guitars

-------------------------------------|
-------------------------------------|
-------4-4---------6-6-6-6-----------|
-2-2---4-4---4-4---6-6-6-6-----------|
-2-2---2-2---4-4---4-4-4-4-----------|
-0-0---------2-2---------------------|


-------------------------------------------------------------------------|
-------------------------------------------------------------------------|
-4-4-4-4-4-4-4-4---------------------6-6-6-6--4-4-4-4--------------------| Repeat
-4-4-4-4-4-4-4-4---4-4-4-4-4-4-4-4---6-6-6-6--4-4-4-4--4-4-4-4-4-4-4-4---|
-2-2-2-2-2-2-2-2---4-4-4-4-4-4-4-4---4-4-4-4--2-2-2-2--4-4-4-4-4-4-4-4---|
-------------------2-2-2-2-2-2-2-2---------------------2-2-2-2-2-2-2-2---|

Guitar 1

------------------------------------------------------|
-9---9---9---9---------9---9---9---9------------------|
---9---9---9---9-8-1-----9---9---9---9-8-1---00000000-|
------------------------------------------------------|
------------------------------------------------------|
------------------------------------------------------|

Guitar 2


--------------------------------------------------------------------------|
--------------------------------------------------------------------------|
----------------------------------------------------------8-8-8-8-8-8-8-8-|
-2-2-2-2-6-6-6-6-2-2-2-2-6-6-6-6-2-2-2-2--66-4-4-2-2-2-2--8-8-8-8-8-8-8-8-|
-2-2-2-2-6-6-6-6-2-2-2-2-6-6-6-6-2-2-2-2--66-4-4-2-2-2-2--6-6-6-6-6-6-6-6-|
-0-0-0-0-4-4-4-4-0-0-0-0-4-4-4-4-0-0-0-0--44-2-2-0-0-0-0------------------|

-----------------CHORUS END----------------------------------------------


Guitar 1

-------------------------------|
-9---9---9---9-----------------|
---9---9---9---9-8-1-----------|     Pickscrape
-------------------------------|
-------------------------------|
-------------------------------|

Guitar 2
------------------------------------------------------------|
------------------------------------------------------------|
------------------------------------------------------------|
------------------------------------------------6-6-4-4-----|
-7-7-7-7-7-6-4-6--------------------4-4-6-6-4-----------6---|
-----------------7-7-7-4-4-4-7-4-7-7---------4-4------------|

Guitar 1
------------------------------------|
------------------------------------|
-9-9-9-9-9-9-9-9--------------------|
-9-9-9-9-9-9-9-9--------------------|
-7-7-7-7-7-7-7-7--------------------|
------------------------------------|

Guitar 2
------------------------------------|
------------------------------------|
------------------------------------|
-2-2-2-2-2-2-2-2--------------------|
-2-2-2-2-2-2-2-2--------------------|
-0-0-0-0-0-0-0-0--------------------|

Guitar 1 - Does nothing
Guitar 2 - Palm mutes

Guitar 1
-------------------------------|
-9---9---9---9-----------------|
---9---9---9---9-8-1-----------|
-------------------------------|
-------------------------------|
-------------------------------|

Guitar 2
------------------------------------|
------------------------------------|
------------------------------------|
-2-2-2-2-2-2-2-2--------------------|
-2-2-2-2-2-2-2-2--------------------|
-0-0-0-0-0-0-0-0--------------------|


----------------------CHORUS START--------------------------------------
Both Guitars

-------------------------------------|
-------------------------------------|
-------4-4---------6-6-6-6-----------|
-2-2---4-4---4-4---6-6-6-6-----------|
-2-2---2-2---4-4---4-4-4-4-----------|
-0-0---------2-2---------------------|


-------------------------------------------------------------------------|
-------------------------------------------------------------------------|
-4-4-4-4-4-4-4-4---------------------6-6-6-6--4-4-4-4--------------------| Repeat
-4-4-4-4-4-4-4-4---4-4-4-4-4-4-4-4---6-6-6-6--4-4-4-4--4-4-4-4-4-4-4-4---|
-2-2-2-2-2-2-2-2---4-4-4-4-4-4-4-4---4-4-4-4--2-2-2-2--4-4-4-4-4-4-4-4---|
-------------------2-2-2-2-2-2-2-2---------------------2-2-2-2-2-2-2-2---|

Guitar 1

------------------------------------------------------|
-9---9---9---9---------9---9---9---9------------------|
---9---9---9---9-8-1-----9---9---9---9-8-1---00000000-|
------------------------------------------------------|
------------------------------------------------------|
------------------------------------------------------|

Guitar 2


--------------------------------------------------------------------------|
--------------------------------------------------------------------------|
----------------------------------------------------------8-8-8-8-8-8-8-8-|
-2-2-2-2-6-6-6-6-2-2-2-2-6-6-6-6-2-2-2-2--66-4-4-2-2-2-2--8-8-8-8-8-8-8-8-|
-2-2-2-2-6-6-6-6-2-2-2-2-6-6-6-6-2-2-2-2--66-4-4-2-2-2-2--6-6-6-6-6-6-6-6-|
-0-0-0-0-4-4-4-4-0-0-0-0-4-4-4-4-0-0-0-0--44-2-2-0-0-0-0------------------|

-----------------CHORUS END----------------------------------------------

--Interlude thingy--

Guitar 1
For this part, let the guitar ring, If you wish you can continuously pick it.
-------------------------------------------------------
-9~ ---12~ ----11~ ---14~---12~ ---16~ ---14~ ---17~---
-------------------------------------------------------|
-------------------------------------------------------|
-------------------------------------------------------|
-------------------------------------------------------|

Guitar 2 - haven't figured out yet, but plays a higher version of this.


Breakdown thingy

Guitar 2 does nothing here

Guitar 1

-----------------------------------|
-----------------------------------|
-----------------------------------| Repeat
-----------------------------------|
-22222222--------4444-2222---------|
---------22222222---------22222222-|

Then you skip to the second part of the chorus.

Guitar 1

------------------------------------------------------|
-9---9---9---9---------9---9---9---9------------------|
---9---9---9---9-8-1-----9---9---9---9-8-1---00000000-|
------------------------------------------------------|
------------------------------------------------------|
------------------------------------------------------|

Guitar 2


--------------------------------------------------------------------------|
--------------------------------------------------------------------------|
----------------------------------------------------------8-8-8-8-8-8-8-8-|
-2-2-2-2-6-6-6-6-2-2-2-2-6-6-6-6-2-2-2-2--66-4-4-2-2-2-2--8-8-8-8-8-8-8-8-|
-2-2-2-2-6-6-6-6-2-2-2-2-6-6-6-6-2-2-2-2--66-4-4-2-2-2-2--6-6-6-6-6-6-6-6-|
-0-0-0-0-4-4-4-4-0-0-0-0-4-4-4-4-0-0-0-0--44-2-2-0-0-0-0------------------|

-----------------CHORUS END----------------------------------------------

-----------------SOLO-------------------------------------
Sorry, but i haven't yet figured out what guitar 2 does...

----------------------------------|
-------12----12----------14----14-|
----13----13----13-15-13----13----|
-14-------------------------------|
----------------------------------|
----------------------------------|

--------------------------------------|
-------12----12----------14--16-14-12-|
----13----13----13-15-13--------------|
-14-----------------------------------|
--------------------------------------|
--------------------------------------|

----------------------------------|
-------12----12----------14----14-|
----13----13----13-15-13----13----|
-14-------------------------------|
----------------------------------|
----------------------------------|

--------------------------------------|
-------12----12----------14--16-14-12-|
----13----13----13-15-13--------------|
-14-----------------------------------|
--------------------------------------|
--------------------------------------|


Slow down gradually at the end, then go crazy with the wha wha and slide down.
----------------------------------|
-------12----12----------14----14-|
----13----13----13-15-13----13----|
-14-------------------------------|
----------------------------------|
----------------------------------|


Lyrics

Sarah
Won't you tell me your name
I've been waiting here for hours
In the garden by the flowers
You're so shy
So just open your eyes
The boys all form a line to be written out in time
A long, long, long, long time ago

Emergency
I think I am falling apart
Emergency
I think I am losing the fight
And I don't know if I can do it
I don't know if I can try
I don't know if anyone asked me the reason I lied
She sighed

Sarah
Is she your new best friend
One day it will end, you know it will
You're so shy
So just let it fall apart
Let it stumble in the dark
With the razors in your heart
A long, long, long, long time ago

Emergency
I think I am falling apart
Emergency
I think I am losing the fight
And I don't know if I can do it
I don't know if I can try
I don't know if anyone asked me the reason I lied
She sighed
She sighed

Emergency
I think I am falling apart
Emergency
I think I am losing the fight
And I don't know if I can do it
I don't know if I can try
I don't know if anyone asked me the reason I lied
She sighed
She sighed
Tap to rate this tab
 
# A B C D E F G H I J K L M N O P Q R S T U V W X Y Z